Ws - Frank Chords & Tabs

 

Frank Chords & Tabs

Ws Chords & Tabs

Version: 1 Type: Bass Tab 0 ratings
1 star 2 stars 3 stars 4 stars 5 stars
comments

Frank Bass Tab

   
Song: Frank
Artist: The W's
Album: Fouth From the Last
Tabbed By: Cameron Martin
E-mail: bassplayer4him@juno.com

Guys, I'm sick and tired of wrong bass tabs. I hate it. I got this one
perfect. i swear.Despite what anyone will say, I guarentee it's 100%
perfect. Ok here it is.

(A)Intro:
G|--------2---------
D|------3---3--2---
A|--2------------3-
E|------------------

(B)Intro Variation:
G|-------2--3--2-----
D|-----3----------3--
A|--2----------------
E|--------------------

(C) Verse:
G|----------------------------
D|-----0--2--3--4--3--2--0--
A|--2-------------------------
E|-----------------------------
[ Tab from: http://www.guitartabs.cc/tabs/w/ws/frank_btab.html ]
(D) Verse Variation
G|------------------2---------
D|-----0--2--3--4-----4--3--
A|--2------------------------
E|----------------------------

(E) Variation When Playing Verse Slow
G|--------------------------2----2---------
D|--------0----2----3----4--4-----4-3-2--
A|--2--------------------------------------
E|------------------------------------------

(F)Chords To Chorus:
B B B B B B B B B B B B B B B B B B B B B B B
Frank!..............waaas a contractor, is he after you?

That's what i got. that my best effort. dis me all u want. None of this
what so ever has been prevously copied. it's my own work.

Comments