Wray Link - Rumble Chords & Tabs

 

Rumble Chords & Tabs

Wray Link Chords & Tabs

Version: 1 Type: Tab 1 rating
1 star 2 stars 3 stars 4 stars 5 stars
comments

Rumble Tab

   
Song: Rumble
Band: Link Wray
Tabbed by: SpRiNgWaFfLe [springwaffle@comcast.net]

  D  D  E       D  D  E
e-2--2--0r------2--2--0r------
b-3--3--0r------3--3--0r------
g-2--2--1r------2--2--1r------
d-0--0--2r------0--0--2r------ x2
a-------2r------------2r------
e-------0r------------0r------

  D  D  A       D  D  E
e-2--2--0r------2--2--0r------
b-3--3--2r------3--3--0r------
g-2--2--2r------2--2--1r------
d-0--0--2r------0--0--2r------
a-------0r------------2r------
e---------------------0r------

  D  D  B7
e-2--2--2r-----3-0----------------------
b-3--3--0r---------3-0------------------
g-2--2--2r-------------2-0--------------
d-0--0--1r-----------------2-0----------
a-------2r---------------------2-0------
e----------------------------------3b-0-

  D  D  E       D  D  E
e-2--2--0r------2--2--0r------
b-3--3--0r------3--3--0r------
g-2--2--1r------2--2--1r------
d-0--0--2r------0--0--2r------ x2
a-------2r------------2r------
e-------0r------------0r------
[ Tab from: http://www.guitartabs.cc/tabs/w/wray_link/rumble_tab.html ]
  D  D  A       D  D  E
e-2--2--0r------2--2--0r------
b-3--3--2r------3--3--0r------
g-2--2--2r------2--2--1r------
d-0--0--2r------0--0--2r------
a-------0r------------2r------
e---------------------0r------

  D  D  B7
e-2--2--2r-----3-0----------------------
b-3--3--0r---------3-0------------------
g-2--2--2r-------------2-0--------------
d-0--0--1r-----------------2-0----------
a-------2r---------------------2-0------
e----------------------------------3b-0-

  D  D  E        
e-2--2--0r------/12xxxx-
b-3--3--0r------/12xxxx-
g-2--2--1r--------------
d-0--0--2r--------------
a-------2r--------------
e-------0r--------------

xxxx = just keep hitting those notes over and over
really fast, slide down from wherever every once
in a while, end on A like this:

  A       D  D  E
e-0r------2--2--0r------
b-2r------3--3--0r------
g-2r------2--2--1r------
d-2r------0--0--2r------
a-0r------------2r------
e---------------0r------

  D  D  B7
e-2--2--2r-----3-0----------------------
b-3--3--0r---------3-0------------------
g-2--2--2r-------------2-0--------------
d-0--0--1r-----------------2-0----------
a-------2r---------------------2-0------
e----------------------------------3b-0-

End like this:
  D  D  E        
e-2--2--0r------
b-3--3--0r------
g-2--2--1r------
d-0--0--2r------
a-------2r------
e-------0r------

r = let ring
Comments