Worschec Romain - Malaguena Chords & Tabs

 

Malaguena Chords & Tabs

Worschec Romain Chords & Tabs

Version: 1 Type: Tab 0 ratings
1 star 2 stars 3 stars 4 stars 5 stars
comments

Malaguena Tab

       ~
MALAGUENA (malaguenia)
Romain Worschec

Submitted By mazen426@hotmail.com

Time Signiture 3/4
Tuning Standard

--0---0---0-|--0---0---0-|--0---0---0-|--0---0---0-|
------------|------------|------------|------------|
------------|------------|------------|------------|  X2
------------|------------|------------|------------|
--------2---|--------2---|0---3---2---|0-----------|
0---4-------|0---4-------|------------|----3---1---|



--0---0---0-|--0---0---0-|--0---0---0-|--0---0---0-|
--------0---|--------0---|----1---0---|------------|
----1-------|----1-------|2-----------|2---0-------|  X2
2-----------|2-----------|------------|--------3---|
------------|------------|------------|------------|
------------|------------|------------|------------|



----0----0--|
----0----0--|
----1----1--|
2-----------|
------------|
------------|



--0---0---0-|--0---0---0-|--0---0---0-|--0---0---0-|
----1-------|1-------1---|----0-------|0-------0---|
2-------2---|----2-------|0-------0---|----0-------|
------------|------------|------------|------------|	
------------|------------|------------|------------|	
------------|------------|------------|------------|	
							
							
Continue..							
------------|------------|------------|------------|	
--3---3---3-|--3---3---3-|--0---0---0-|--0---0---0-|	
----2-------|2-------2---|----1-------|1-------1---|  X2
3-------3---|----3-------|2-------2---|----2-------|
------------|------------|------------|------------|
------------|------------|------------|------------|



----0----0--|
----0----0--|
----1----1--|
2-----------|
------------|
------------|


[ Tab from: http://www.guitartabs.cc/tabs/w/worschec_romain/malaguena_tab.html ]
1p0-----1p0-----1p0-----|------------------------|------------------------|-------0-----|
-----3-------3-------3--|1p0-----1p0-----1p0-----|------------------------|-----0-------|
------------------------|-----2-------2-------2--|2p0-----2p0-----2p0-----|---1---------|
------------------------|------------------------|-----3-------3-------3--|-2-----------|
------------------------|------------------------|------------------------|-------------|
------------------------|------------------------|------------------------|-------------|




1p0-----1p0-----1p0-----|------------------------|------------------------|-----0----0--|
-----3-------3-------3--|1p0-----1p0-----1p0-----|------------------------|-----0----0--|
------------------------|-----2-------2-------2--|2p0-----2p0-----2p0-----|-----1----1--|
------------------------|------------------------|-----3-------3-------3--|-2-----------|
------------------------|------------------------|------------------------|-------------|
------------------------|------------------------|------------------------|-------------|




--0---0---0-|--0---0---0-|--0---0---0-|--0---0---0-|
------------|------------|------------|------------|
------------|------------|------------|------------|  X2
------------|------------|------------|------------|
--------2---|--------2---|0---3---2---|0-----------|
0---4-------|0---4-------|------------|----3---1---|


    ~    ~
----0----0--|
----0----0--|
----1----1--|  (~= Strum Down) 
----2----2--|
------------|
0-----------|



--0---0---0-|------------|------------|------------|
----1-------|--3---3---3-|--1---1---1-|--0---0---0-|
2-------2---|----4-------|----2-------|----1-------|  X2
------------|5-------5---|3-------3---|2-------2---|
------------|------------|------------|------------|
------------|------------|------------|------------|



    ~    ~        ~
----0----0--|-----0------|
----0----0--|-----0------|
----1----1--|-----1------|   
----2----2--|-----2------|
----2----2--|-----2------|
0-----------|-----0------|
Comments