Workhorse Movement - Keep The Sabbath Dream Alive Chords & Tabs

 

Keep The Sabbath Dream Alive Chords & Tabs

Workhorse Movement Chords & Tabs

Version: 2 Type: Tab 0 ratings
1 star 2 stars 3 stars 4 stars 5 stars
comments

Keep The Sabbath Dream Alive Tab

workhorse movement
keep the sabbath dream alive

tabbed by duffy

^=bend
standard tuning

fig 1
------------
------------
------------
------------
-5-5-6-5-3-5
------------

fig 2
-------------
-------------
-------------
-------------
-5-5-10-9-3-5
-------------

fig 3
-------------
-------------
-------------
-------------
-5-5-8-7-3-5-
-------------

chorus 1
---------------------------
---------------------------
-*7-*10-*12-7-7-5-5-2-2----
-*7-*10-*12-7-7-5-5-2-2-5-5
-*5-*8--*10-5-5-3-3-0-0-5-5
------------------------3-3

fig 4
--------
--------
-7-5-2--
-7-5-2-5
-5-3-0-5
-------3
[ Tab from: http://www.guitartabs.cc/tabs/w/workhorse_movement/keep_the_sabbath_dream_alive_tab_ver_2.html ]
fig 5
----------------
----------------
----------------
----------------
-5-8-5-3-5-3-2-3
----------------

fig 6
------------------
------------------
------------------
------------------
-5-8-5-10^-8-5-8-3
------------------

chorus 2
------------
------------
-*7-*5-*2---
-*7-*5-*2-*5
-*5-*3-*0-*5
----------*3

chorus 3
-------------
-------------
-*7-*10-*5-*2
-*7-*10-*5-*2
-*5-*8--*3-*0
-------------

chorus 4
---------------
---------------
-*7-*10-*14-*17
-*7-*10-*14-*17
-*5-*8--*12-*15
---------------

this is not 100% correct and is probaly the only palce you can find this tab. questions email mike at duffthing@yahoo.com
Comments