Workhorse Movement - Keep The Sabbath Dream Alive Chords & Tabs

 

Keep The Sabbath Dream Alive Chords & Tabs

Workhorse Movement Chords & Tabs

Version: 1 Type: Tab 0 ratings
1 star 2 stars 3 stars 4 stars 5 stars
comments

Keep The Sabbath Dream Alive Tab

WORKHORSE MOVEMENT
KEEP THE SABBATH DREAM ALIVE
SONS OF THE PIONEERS

Tabbed By DUFFY


^=bend


Standard Tuning

Fig 1

 -------------
 -------------
 -------------
 -------------
 -5-5-6-5-3-5-
 -------------

Fig 2

 ----------------
 ----------------
 ----------------
 ----------------
 -5-5-10-9-3-5-5-
 ----------------

Fig 3

 ---------------
 ---------------
 ---------------
 ---------------
 -5-5-8-7-3-5-5-
 ---------------

Chorus 1

 ----------------------------------------------------------------
 ----------------------------------------------------------------
 -7-7-7-7-7-7-7-7-10-10-10-10-10-10-10-10-12-12-12-12-12-12-12-12
 -7-7-7-7-7-7-7-7-10-10-10-10-10-10-10-10-12-12-12-12-12-12-12-12
 -5-5-5-5-5-5-5-5-8--8--8--8--8--8--8--8--10-10-10-10-10-10-10-10
 ----------------------------------------------------------------

 ----------------
 ----------------
 -7-7-5-5-2-2----
 -7-7-5-5-2-2-5-5
 -5-5-3-3-0-0-5-5
 -------------3-3

Fig 4

 ---------
 ---------
 -7-5-2---
 -7-5-2-5-
 -5-3-0-5-
 -------3-


Fig 5

 -
 -
 -
 -
 -5-8-5-3-5-3-2-3-

Fig 6
 
 ---------------------
 ---------------------
 ---------------------
 ---------------------
 -5-8-5-10^-8-5-8-5-3-
 ---------------------

Chorus 2

 -----------------------------------------------------------------
 -----------------------------------------------------------------
 -7-7-7-7-7-7-7-7-5-5-5-5-5-5-5-5-2-2-2-2-2-2-2-2-----------------
 -7-7-7-7-7-7-7-7-5-5-5-5-5-5-5-5-2-2-2-2-2-2-2-2-5-5-5-5-5-5-5-5-
 -5-5-5-5-5-5-5-5-3-3-3-3-3-3-3-3-0-0-0-0-0-0-0-0-5-5-5-5-5-5-5-5-
 -------------------------------------------------3-3-3-3-3-3-3-3-

Chorus 3
[ Tab from: http://www.guitartabs.cc/tabs/w/workhorse_movement/keep_the_sabbath_dream_alive_tab.html ]
 -------------------------------------------------------------------------
 -------------------------------------------------------------------------
 -7-7-7-7-7-7-7-7-10-10-10-10-10-10-10-10-5-5-5-5-5-5-5-5-2-2-2-2-2-2-2-2-
 -7-7-7-7-7-7-7-7-10-10-10-10-10-10-10-10-5-5-5-5-5-5-5-5-2-2-2-2-2-2-2-2-
 -5-5-5-5-5-5-5-5-8--8--8--8--8--8--8--8--3-3-3-3-3-3-3-3-0-0-0-0-0-0-0-0-
 -------------------------------------------------------------------------

Chorus 4

 -----------------------------------------------------------------------------------------
 -----------------------------------------------------------------------------------------
 -7-7-7-7-7-7-7-7-10-10-10-10-10-10-10-10-14-14-14-14-14-14-14-14-17-17-17-17-17-17-17-17-
 -7-7-7-7-7-7-7-7-10-10-10-10-10-10-10-10-14-14-14-14-14-14-14-14-17-17-17-17-17-17-17-17-
 -5-5-5-5-5-5-5-5-8--8--8--8--8--8--8--8--12-12-12-12-12-12-12-12-15-15-15-15-15-15-15-15-
 -----------------------------------------------------------------------------------------

Order of Play

Intro - Fig 1
        Fig 2
        Fig 1
        Fig 3
        Fig 1
        Fig 2

Verse 1 - Fig 1
          Fig 3
          Fig 1
          Fig 2
          Fig 1
          Fig 3
          Fig 1
          Fig 2

Chorus 1 2x
Fig 1
Fig 3
Fig 1
Fig 2

Verse 2 - Fig 1
          Fig 3
          Fig 1
          Fig 3
          Fig 1
          Fig 2

Chorus 1 2x
Fig 4 2x
Fig 5
Fig 6
Fig 5
Fig 6
Fig 1
Fig 3
Fig 1
Fig 2
Fig 1
Fig 3
Fig 1
Fig 2

Verse 3 - Fig 1
          Fig 3
          Fig 1
          Fig 2
          Fig 1
          Fig 3
          Fig 1
          Fig 2

End - Chorus 1 2x
      Chorus 2 
      Chorus 3
      Chorus 1 2x
      Chorus 2
      Chorus 4

COMMENTS:
This song isn't 100% accurate but its the best i could do. i got sick and tired
of trying to find the tab to it so i tabbed it last night. it is impossible to 
find a tab to it anywhere on the internet. this is also my first tab i've done 
so there are bound to be mistakes. A great band that have sadly passed away.
R.I.P Workhorse movement.

comments? questions? email mike at duffthing@yahoo.com
Comments