Woody Guthrie - Do Re Mi Chords & Tabs

 

Do Re Mi Chords & Tabs

Woody Guthrie Chords & Tabs

Version: 1 Type: Tab

Do Re Mi Tab

intro/interlude

E------------------------------------------------------------------|
B------------------------------------------------------------------|
G--------1---1------1--------------1h2p---------1----------2-2-1-1-|
D------1---2---s4--2---s4-2-----2--------2---4-----4---2---1-1-2-2-|
A--2-2-----------------------4-------------------------------------|
E------------------------------------------------------------------|
[ Tab from: http://www.guitartabs.cc/tabs/w/woody_guthrie/do_re_mi_tab.html ]
verse
   they say is leavin home, everyday...
E-------------------------------------|
B-------------------------------------|
G----------h1---------h1--------------|
D--2-2-2-2----2-2-2-2-----------------|
A-------------------------------------|
E-------------------------------------|

shouldnt be hard to figure the rest out.

chorus
 oh, if you aint...             live in or see...
E------------------------------------------------------------------|
B----------------------------------------h2--X2--------------------|
G-----------h1----------h1-------2-2-2-2-----X2--------------h1-X2-|
D---2-2-2-2-----2-2-2-2----------------------------2-2-2-2------X2-|
A------------------------------------------------------------------|
E------------------------------------------------------------------|

Tabbed by Alexei Shatz