Wonders - That Thing You Do Chords & Tabs

 

That Thing You Do Chords & Tabs

Wonders Chords & Tabs

Version: 4 Type: Tab 0 ratings
1 star 2 stars 3 stars 4 stars 5 stars
comments

That Thing You Do Tab

Intro:
|--4--2--0--------|
|--0--0--0--0--2--|
|-----------4--3--|
|-----------------|
|-----------------|
|-----------------|
[ Tab from: http://www.guitartabs.cc/tabs/w/wonders/that_thing_you_do_tab_ver_4.html ]
Solo:
|---------------------------------------------------------------------------|
|--9-9--7-7--------7--8b--7--------9-9--7-7--------7--8b--7---------7-8b--7-|
|--------------9-9-------------9--6--------------9-9-------------9--6-9-----|
|---------------------------------------------------------------------------|
|---------------------------------------------------------------------------|
|---------------------------------------------------------------------------|

|--------------------------------------------------|
|--8v----7-8b--6-8p6-----7-8b--7-------------------|
|-----9---------------9------------9--6------------|
|-----------------------------------------9--7-----|
|-----------------------------------------------9--|
|--------------------------------------------------|

I used "v" for bend down coz I dunno what the symbol for bend down is.

This is my very first time to make tabs and I just made it a while ago
so I hope it's okay. Please email me at annonymousSMC@yahoo.com
Comments