Wonders - That Thing You Do Chords & Tabs

 

That Thing You Do Chords & Tabs

Wonders Chords & Tabs

Version: 3 Type: Tab 0 ratings
1 star 2 stars 3 stars 4 stars 5 stars
comments

That Thing You Do Tab

Tabbed by Devin T.

Here is the Solo from That Thing You Do!:
[ Tab from: http://www.guitartabs.cc/tabs/w/wonders/that_thing_you_do_tab_ver_3.html ]
e--0--0-----0------------------0--0-----0------------------------------|
B--5--5-----5-7b9b7--5--------5--5-----5-7b9b7--5-----5-----5--------|
G--------6---------------6--4--------6---------------6-----6-----------|
D----------------------------------------------------------------------|
A----------------------------------------------------------------------|
E----------------------------------------------------------------------|

e----------------------------------------------------------------------|
B7b9b7--5--7--5--77b9b7--5-----5--7-7b9b7--5-----5-----5-----5------|
G-----------------------------6------------------6-----5-----4---------|
D----------------------------------------------------------------------|
A----------------------------------------------------------------------|
E----------------------------------------------------------------------|
Comments