Wonders - Dance With Me Tonight Chords & Tabs

 

Dance With Me Tonight Chords & Tabs

Wonders Chords & Tabs

Version: 1 Type: Bass Tab 0 ratings
1 star 2 stars 3 stars 4 stars 5 stars
comments

Dance With Me Tonight Bass Tab

BASS TAB FOR: Song: Dance With Me(by the Wonders) from the motion picture soundtrack 
 
Tabbed By: Tommy C.

The little slide from the 6th and 7th frets
is really quick,you'll know when you listen to the song.

thcarty@hotmail.com



                                    
Q=140
4/4
  
  
|--------5----5-7---|--------5--------|--------5----5-7-|--------5----------|
|----6S7----7-------|----6S7----7-5-7-|----6S7----7-----|----6S7----7-5-7---|
|-5-----------------|-5---------------|-5---------------|-5-----------------|
|-------------------|-----------------|-----------------|-------------------|

            
|-----------------|-----------------|--------5----5-7-|--------5--------|
|--------3----3-5-|--------3--------|----6S7----7-----|----6S7----7-5-7-|
|----4S5----5-----|----4S5----5-3-5-|-5---------------|-5---------------|
|-3---------------|-3---------------|-----------------|-----------------|
                      
|-----------------|------------------|-----|----------------|----|
|-----------------|------------------|-----|----------------|----|
|-6h7-7-6h7-7-6h7-|--------------2-3-|-5\--|----------------|----|
|-----------------|--3-3-3-3-3-3-----|-----|-5-5-5-5-5-5-5--|----|


|--------5----5-7-|--------5----5---|--------5----5-7-|--------5----5---|
|----6S7----7-----|----6S7----7---7-|----6S7----7-----|----6S7----7---7-|
|-5---------------|-5---------------|-5---------------|-5---------------|
|-----------------|-----------------|-----------------|-----------------|


|-----------10-----10-12-|-----------10-----------|
|-----11S12-----12-------|-----11S12-----12-10----|
|-10---------------------|-10------------------12-|
|------------------------|------------------------|


|--------5----5-7-|--------5--------|
|----6S7----7-----|----6S7----7-5-7-|
|-5---------------|-5---------------|
|-----------------|-----------------|


|-----------------|-----------------|------|------------------|
|-----------------|-----------------|------|------------------|
|-6h7-7-6h7-7-6h7-|-------------2-3-|-5\---|------------------|
|-----------------|-2h3-3-3-3-3-----|------|-5-5-5-5-5-5-5----|

(guitar solo)
|----------------|---------------|----------------|---------------|
|----------------|---------------|----------------|---------------|
|-5-5-5-3----3---|-5--5-3----3---|-5-5-5-3----3---|-5--5-3----3---|
|----------5---5-|---------5---5-|----------5---5-|---------5---5-|


|---------------|---------------|---------------|---------------|
|---------------|---------------|---------------|---------------|
|---------------|---------------|-5--5-3----3-5-|-5--5-3----3---|
|-3--3-1--1-1-3-|-3--3-1--1-3-5-|---------5-----|---------5---5-|

[ Tab from: http://www.guitartabs.cc/tabs/w/wonders/dance_with_me_tonight_btab.html ]
|----------------|-----------------|-----------------|-----------------|
|-2-2-2-2--0-----|-----------------|-----------------|-----------------|
|------------3-0-|-------------2-3-|-5-5-5-5-5-5-5-5-|-5-5-3-3-2-2-----|
|----------------|-3-3-3-3-3-3-----|-----------------|-------------5-5-|


|-----------------|-----------------|-----------------|-----------------|
|-----------------|-----------------|-----------------|-----------------|
|---------2-2-4-2-|-----4-4-7-7-4-7-|---------2-2-4-2-|-----4-4-7-7-4-7-|
|-0-0-3-4---------|-5-5-------------|-0-0-3-4---------|-5-5-------------|


|-----------------|-----------------|-----------------|-----------------|
|-----------------|-----------------|-----------------|-----------------|
|-5-5-3-3-2-2-----|-----2-2-3-3-5-5-|-7-7-5-5-4-4-----|-----------------|
|-------------5-5-|-3-3-------------|-------------7-7-|-3h5-5-5-5-5-5-5-|


|-----------------|-----------------|-------|-------|----|
|-----------------|-----------------|-------|-------|----|
|-----------------|-----------------|-------|-----0-|----|
|-3h5-5-5-5-5-5-5-|-3h5-5-5-5-5-5-5-|-10\---|-------|----|


|--------5----5-7-|--------5----5---|--------5----5-7-|--------5--------|
|----6S7----7-----|----6S7----7---7-|----6S7----7-----|----6S7----7-5-7-|
|-5---------------|-5---------------|-5---------------|-5---------------|
|-----------------|-----------------|-----------------|-----------------|


|-----------10-----10-12-|-----------10-----------|
|-----11S12-----12-------|-----11S12-----12-10----|
|-10---------------------|-10------------------12-|
|------------------------|------------------------|


|--------5----5-7-|--------5--------|
|----6S7----7-----|----6S7----7-5-7-|
|-5---------------|-5---------------|
|-----------------|-----------------|

                                   (slow long bend)
|-----------------|-----------------|------------|----------------|
|-2-2-2-2-2-2-2-2-|-----------------|------------|----------------|
|-----------------|-------------2-3-|------------|----------------|
|-----------------|-3-3-3-3-3-3-----|--10\-------|-5-5-5-5-5-5-5--|


|---------------|---------------|---------------|---------------|
|---------------|---------------|---------------|---------------|
|-5--5-3----3-4-|-5--5-3----3-5-|-5--5-3----3-4-|-5--5-3----3-5-|
|---------5-----|---------5-----|---------5-----|---------5-----|


|---------------|---------------|---------------|---------------|
|----5-3----3-5-|----5-3--------|---------------|---------------|
|---------5-----|---------5-3-5-|-5--5-3----3-5-|-5--5-3----3-5-|
|-3-------------|-3-------------|---------5-----|---------5-----|


|-----------------|-----------------|---------------|-------------------|
|-----------------|-----------------|---------------|-------------------|
|-----------------|-------------2-3-|-5--5-3----3-5-|-5--5-3--5-5-5-5\--|
|-0-0-0-0-0-0-0-0-|-3-3-3-3-3-3-----|---------5-----|-------------------|


***************************************************************************************
* Generated using Power Tab Editor by Brad Larsen - http://powertab.guitarnetwork.org *
***************************************************************************************
Comments