Wonder Stevie - Superstition Chords & Tabs

 

Superstition Chords & Tabs

Wonder Stevie Chords & Tabs

Version: 1 Type: Bass Tab 0 ratings
1 star 2 stars 3 stars 4 stars 5 stars
comments

Superstition Bass Tab

   
Superstition (Stevie Wonder)

Tabbed by vincesmyth

INTRO (a bit dull, try dropping in the riffs from 
Another One Bites the Dust, The Message, or 
Last Night a DJ Saved My Life in the same tempo)
      
G |------------------------------------------------|
D |------------------------------------------------|
A |------------------------------------------------|
E |-0---0---0---0---0---0---0---0---0---0---0---0--|

VERSE
                                    H
G ||-------------------------------------||
D ||.-----------------------------------.||
A ||.-----------------------------(5)7--.||
E ||-0---0---0-------0---0---0---0-------||

[ Tab from: http://www.guitartabs.cc/tabs/w/wonder_stevie/superstition_btab.html ]
CHORUS
             H H       H H      H
G ||----------------------------------4-------||
D ||.-----------------------------------5----.||
A ||.-7-5-7-------5---5-6-7--7-5-7-(7)----7--.||
E ||--------5-6-7---7-------------------------||
    with guitar riff
                          H H     H
G |----------------------------------7----|
D |----------------------------5-5-7------|
A |-2---3---2---0---0-0--5-6-7------------|
E |---------------------------------------|
   "if you believe.."                 "Superstition..."


There's plenty of vamping, but the keyboard does
most of the clever stuff. 

H indicates Hammer-on


Comments