Wonder Stevie - Isnt She Lovely Chords & Tabs

 

Isnt She Lovely Chords & Tabs

Wonder Stevie Chords & Tabs

Version: 1 Type: Tab 0 ratings
1 star 2 stars 3 stars 4 stars 5 stars
comments

Isnt She Lovely Tab

   
                                    Isn't She Lovely                                      


                                                   © 1976 - Words & Music by Stevie Wonder
Acoustic guitar (Capo II)
Strum @ 120bpm



     Bm7                        E9                         A11                      
E||--2--2--2--2--2--2--2--2--|--2--2--2--2--2--2--2--2--|--0--0--0--0--0--0--0--0--|
B||--3--3--3--3--3--3--3--3--|--0--0--0--0--0--0--0--0--|--0--0--0--0--0--0--0--0--|
G||--2--2--2--2--2--2--2--2--|--1--1--1--1--1--1--1--1--|--6--6--6--6--6--6--6--6--|
D||--4--4--4--4--4--4--4--4--|--0--0--0--0--0--0--0--0--|--5--5--5--5--5--5--5--5--|
A||--2-----------2-----------|--2-----------2-----------|--5-----------5-----------|
E||--------------------------|--0-----------0-----------|--5-----------5-----------|


  D                           Bm7                        E9                       
--2--2--2--2--2--2--2-2-2--|--2--2--2--2--2--2--2--2--|--2--2--2--2--2--2--2--2--|
--3--3--3--3--3--3--3-3-3--|--3--3--3--3--3--3--3--3--|--0--0--0--0--0--0--0--0--|
--2--2--2--2--2--2--2-2-2--|--2--2--2--2--2--2--2--2--|--1--1--1--1--1--1--1--1--|
--0-----------0------------|--4--4--4--4--4--4--4--4--|--0--0--0--0--0--0--0--0--|
---------------------------|--2-----------2-----------|--2-----------2-----------|
---------------------------|--------------------------|--0-----------0-----------|


  A11                        D                           Bm7                      
--0--0--0--0--0--0--0--0--|--2--2--2--2--2--2--2-2-2--|--2--2--2--2--2--2--2--2--|
--0--0--0--0--0--0--0--0--|--3--3--3--3--3--3--3-3-3--|--3--3--3--3--3--3--3--3--|
--6--6--6--6--6--6--6--6--|--2--2--2--2--2--2--2-2-2--|--2--2--2--2--2--2--2--2--|
--5--5--5--5--5--5--5--5--|--0-----------0------------|--4--4--4--4--4--4--4--4--|
--5-----------5-----------|---------------------------|--2-----------2-----------|
--5-----------5-----------|---------------------------|--------------------------|


  E9                         A11                        D                         
--2--2--2--2--2--2--2--2--|--0--0--0--0--0--0--0--0--|--2--2--2--2--2--2--2-2-2--|
--0--0--0--0--0--0--0--0--|--0--0--0--0--0--0--0--0--|--3--3--3--3--3--3--3-3-3--|
--1--1--1--1--1--1--1--1--|--6--6--6--6--6--6--6--6--|--2--2--2--2--2--2--2-2-2--|
--0--0--0--0--0--0--0--0--|--5--5--5--5--5--5--5--5--|--0-----------0------------|
--2-----------2-----------|--5-----------5-----------|---------------------------|
--0-----------0-----------|--5-----------5-----------|---------------------------|


  Gmaj7                      Gdim        F#7               Bm7                      
--2--2--2--2--2--2--2--2--|--6--6--6--6--2----2----2----|--2--2--2--2--2--2--2--2--|
--3--3--3--3--3--3--3--3--|--5--5--5--5--2----2----2----|--3--3--3--3--3--3--3--3--|
--4--4--4--4--4--4--4--4--|--6--6--6--6--3----3----3----|--2--2--2--2--2--2--2--2--|
--5--5--5--5--5--5--5--5--|--5--5--5--5--2----2----2----|--4--4--4--4--4--4--4--4--|
--------------------------|--------------4----4----4----|--2-----------2-----------|
--------------------------|--------------2----2----2----|--------------------------|


  E9                         A11                        A11                      
--2--2--2--2--2--2--2--2--|--0--0--0--0--0--0--0--0--|--0--0--0--0--0--0--0--0--|
--0--0--0--0--0--0--0--0--|--0--0--0--0--0--0--0--0--|--0--0--0--0--0--0--0--0--|
--1--1--1--1--1--1--1--1--|--6--6--6--6--6--6--6--6--|--6--6--6--6--6--6--6--6--|
--0--0--0--0--0--0--0--0--|--5--5--5--5--5--5--5--5--|--5--5--5--5--5--5--5--5--|
--2-----------2-----------|--5-----------5-----------|--5-----------5-----------|
--0-----------0-----------|--5-----------5-----------|--5-----------5-----------|


  D                                             Bm7                      
--2----------------|----------2----2----2----|--2--2--2--2--2--2--2--2--|
--3----------------|----------3----3----3----|--3--3--3--3--3--3--3--3--|
--2----------------|----------2----2----2----|--2--2--2--2--2--2--2--2--|
--0----------------|-------------------------|--4--4--4--4--4--4--4--4--|
-------------------|-------------------------|--2-----------2-----------|
-------------------|-------------------------|--------------------------|


  E9                         A11                        D                         
--2--2--2--2--2--2--2--2--|--0--0--0--0--0--0--0--0--|--2--2--2--2--2--2--2-2-2--|
--0--0--0--0--0--0--0--0--|--0--0--0--0--0--0--0--0--|--3--3--3--3--3--3--3-3-3--|
--1--1--1--1--1--1--1--1--|--6--6--6--6--6--6--6--6--|--2--2--2--2--2--2--2-2-2--|
--0--0--0--0--0--0--0--0--|--5--5--5--5--5--5--5--5--|--0-----------0------------|
--2-----------2-----------|--5-----------5-----------|---------------------------|
--0-----------0-----------|--5-----------5-----------|---------------------------|


  Bm7                        E9                         A11                      
--2--2--2--2--2--2--2--2--|--2--2--2--2--2--2--2--2--|--0--0--0--0--0--0--0--0--|
--3--3--3--3--3--3--3--3--|--0--0--0--0--0--0--0--0--|--0--0--0--0--0--0--0--0--|
--2--2--2--2--2--2--2--2--|--1--1--1--1--1--1--1--1--|--6--6--6--6--6--6--6--6--|
--4--4--4--4--4--4--4--4--|--0--0--0--0--0--0--0--0--|--5--5--5--5--5--5--5--5--|
--2-----------2-----------|--2-----------2-----------|--5-----------5-----------|
--------------------------|--0-----------0-----------|--5-----------5-----------|


  D                           Gmaj7                      Gdim        F#7             
--2--2--2--2--2--2--2-2-2--|--2--2--2--2--2--2--2--2--|--6--6--6--6--2----2----2----|
--3--3--3--3--3--3--3-3-3--|--3--3--3--3--3--3--3--3--|--5--5--5--5--2----2----2----|
--2--2--2--2--2--2--2-2-2--|--4--4--4--4--4--4--4--4--|--6--6--6--6--3----3----3----|
--0-----------0------------|--5--5--5--5--5--5--5--5--|--5--5--5--5--2----2----2----|
---------------------------|--------------------------|--------------4----4----4----|
---------------------------|--------------------------|--------------2----2----2----|


  Bm7                        E9                         A11                      
--2--2--2--2--2--2--2--2--|--2--2--2--2--2--2--2--2--|--0--0--0--0--0--0--0--0--|
--3--3--3--3--3--3--3--3--|--0--0--0--0--0--0--0--0--|--0--0--0--0--0--0--0--0--|
--2--2--2--2--2--2--2--2--|--1--1--1--1--1--1--1--1--|--6--6--6--6--6--6--6--6--|
--4--4--4--4--4--4--4--4--|--0--0--0--0--0--0--0--0--|--5--5--5--5--5--5--5--5--|
--2-----------2-----------|--2-----------2-----------|--5-----------5-----------|
--------------------------|--0-----------0-----------|--5-----------5-----------|


  A11                        D                                           
--0--0--0--0--0--0--0--0--|--2----------------|----------2----2----2----|
--0--0--0--0--0--0--0--0--|--3----------------|----------3----3----3----|
--6--6--6--6--6--6--6--6--|--2----------------|----------2----2----2----|
--5--5--5--5--5--5--5--5--|--0----------------|-------------------------|
--5-----------5-----------|-------------------|-------------------------|
--5-----------5-----------|-------------------|-------------------------|


  Bm7                        E9                         A11                      
--2--2--2--2--2--2--2--2--|--2--2--2--2--2--2--2--2--|--0--0--0--0--0--0--0--0--|
--3--3--3--3--3--3--3--3--|--0--0--0--0--0--0--0--0--|--0--0--0--0--0--0--0--0--|
--2--2--2--2--2--2--2--2--|--1--1--1--1--1--1--1--1--|--6--6--6--6--6--6--6--6--|
--4--4--4--4--4--4--4--4--|--0--0--0--0--0--0--0--0--|--5--5--5--5--5--5--5--5--|
--2-----------2-----------|--2-----------2-----------|--5-----------5-----------|
--------------------------|--0-----------0-----------|--5-----------5-----------|


  D                           Bm7                        E9                       
--2--2--2--2--2--2--2-2-2--|--2--2--2--2--2--2--2--2--|--2--2--2--2--2--2--2--2--|
--3--3--3--3--3--3--3-3-3--|--3--3--3--3--3--3--3--3--|--0--0--0--0--0--0--0--0--|
--2--2--2--2--2--2--2-2-2--|--2--2--2--2--2--2--2--2--|--1--1--1--1--1--1--1--1--|
--0-----------0------------|--4--4--4--4--4--4--4--4--|--0--0--0--0--0--0--0--0--|
---------------------------|--2-----------2-----------|--2-----------2-----------|
---------------------------|--------------------------|--0-----------0-----------|

[ Tab from: http://www.guitartabs.cc/tabs/w/wonder_stevie/isnt_she_lovely_tab.html ]
  A11                        D                           Gmaj7                    
--0--0--0--0--0--0--0--0--|--2--2--2--2--2--2--2-2-2--|--2--2--2--2--2--2--2--2--|
--0--0--0--0--0--0--0--0--|--3--3--3--3--3--3--3-3-3--|--3--3--3--3--3--3--3--3--|
--6--6--6--6--6--6--6--6--|--2--2--2--2--2--2--2-2-2--|--4--4--4--4--4--4--4--4--|
--5--5--5--5--5--5--5--5--|--0-----------0------------|--5--5--5--5--5--5--5--5--|
--5-----------5-----------|---------------------------|--------------------------|
--5-----------5-----------|---------------------------|--------------------------|


  Gdim        F#7               Bm7                        E9                       
--6--6--6--6--2----2----2----|--2--2--2--2--2--2--2--2--|--2--2--2--2--2--2--2--2--|
--5--5--5--5--2----2----2----|--3--3--3--3--3--3--3--3--|--0--0--0--0--0--0--0--0--|
--6--6--6--6--3----3----3----|--2--2--2--2--2--2--2--2--|--1--1--1--1--1--1--1--1--|
--5--5--5--5--2----2----2----|--4--4--4--4--4--4--4--4--|--0--0--0--0--0--0--0--0--|
--------------4----4----4----|--2-----------2-----------|--2-----------2-----------|
--------------2----2----2----|--------------------------|--0-----------0-----------|


  A11                        A11                        D                 
--0--0--0--0--0--0--0--0--|--0--0--0--0--0--0--0--0--|--2----------------|
--0--0--0--0--0--0--0--0--|--0--0--0--0--0--0--0--0--|--3----------------|
--6--6--6--6--6--6--6--6--|--6--6--6--6--6--6--6--6--|--2----------------|
--5--5--5--5--5--5--5--5--|--5--5--5--5--5--5--5--5--|--0----------------|
--5-----------5-----------|--5-----------5-----------|-------------------|
--5-----------5-----------|--5-----------5-----------|-------------------|


                            Bm7                        E9                       
----------2----2----2----|--2--2--2--2--2--2--2--2--|--2--2--2--2--2--2--2--2--|
----------3----3----3----|--3--3--3--3--3--3--3--3--|--0--0--0--0--0--0--0--0--|
----------2----2----2----|--2--2--2--2--2--2--2--2--|--1--1--1--1--1--1--1--1--|
-------------------------|--4--4--4--4--4--4--4--4--|--0--0--0--0--0--0--0--0--|
-------------------------|--2-----------2-----------|--2-----------2-----------|
-------------------------|--------------------------|--0-----------0-----------|


  A11                        D                           Bm7                      
--0--0--0--0--0--0--0--0--|--2--2--2--2--2--2--2-2-2--|--2--2--2--2--2--2--2--2--|
--0--0--0--0--0--0--0--0--|--3--3--3--3--3--3--3-3-3--|--3--3--3--3--3--3--3--3--|
--6--6--6--6--6--6--6--6--|--2--2--2--2--2--2--2-2-2--|--2--2--2--2--2--2--2--2--|
--5--5--5--5--5--5--5--5--|--0-----------0------------|--4--4--4--4--4--4--4--4--|
--5-----------5-----------|---------------------------|--2-----------2-----------|
--5-----------5-----------|---------------------------|--------------------------|


  E9                         A11                        D                         
--2--2--2--2--2--2--2--2--|--0--0--0--0--0--0--0--0--|--2--2--2--2--2--2--2-2-2--|
--0--0--0--0--0--0--0--0--|--0--0--0--0--0--0--0--0--|--3--3--3--3--3--3--3-3-3--|
--1--1--1--1--1--1--1--1--|--6--6--6--6--6--6--6--6--|--2--2--2--2--2--2--2-2-2--|
--0--0--0--0--0--0--0--0--|--5--5--5--5--5--5--5--5--|--0-----------0------------|
--2-----------2-----------|--5-----------5-----------|---------------------------|
--0-----------0-----------|--5-----------5-----------|---------------------------|


  Gmaj7                      Gdim        F#7               Bm7                      
--2--2--2--2--2--2--2--2--|--6--6--6--6--2----2----2----|--2--2--2--2--2--2--2--2--|
--3--3--3--3--3--3--3--3--|--5--5--5--5--2----2----2----|--3--3--3--3--3--3--3--3--|
--4--4--4--4--4--4--4--4--|--6--6--6--6--3----3----3----|--2--2--2--2--2--2--2--2--|
--5--5--5--5--5--5--5--5--|--5--5--5--5--2----2----2----|--4--4--4--4--4--4--4--4--|
--------------------------|--------------4----4----4----|--2-----------2-----------|
--------------------------|--------------2----2----2----|--------------------------|


  E9                         A11                        A11                      
--2--2--2--2--2--2--2--2--|--0--0--0--0--0--0--0--0--|--0--0--0--0--0--0--0--0--|
--0--0--0--0--0--0--0--0--|--0--0--0--0--0--0--0--0--|--0--0--0--0--0--0--0--0--|
--1--1--1--1--1--1--1--1--|--6--6--6--6--6--6--6--6--|--6--6--6--6--6--6--6--6--|
--0--0--0--0--0--0--0--0--|--5--5--5--5--5--5--5--5--|--5--5--5--5--5--5--5--5--|
--2-----------2-----------|--5-----------5-----------|--5-----------5-----------|
--0-----------0-----------|--5-----------5-----------|--5-----------5-----------|


  D                                             Bm7                      
--2----------------|----------2----2----2----|--2--2--2--2--2--2--2--2--|
--3----------------|----------3----3----3----|--3--3--3--3--3--3--3--3--|
--2----------------|----------2----2----2----|--2--2--2--2--2--2--2--2--|
--0----------------|-------------------------|--4--4--4--4--4--4--4--4--|
-------------------|-------------------------|--2-----------2-----------|
-------------------|-------------------------|--------------------------|


  E9                         A11                        D                         
--2--2--2--2--2--2--2--2--|--0--0--0--0--0--0--0--0--|--2--2--2--2--2--2--2-2-2--|
--0--0--0--0--0--0--0--0--|--0--0--0--0--0--0--0--0--|--3--3--3--3--3--3--3-3-3--|
--1--1--1--1--1--1--1--1--|--6--6--6--6--6--6--6--6--|--2--2--2--2--2--2--2-2-2--|
--0--0--0--0--0--0--0--0--|--5--5--5--5--5--5--5--5--|--0-----------0------------|
--2-----------2-----------|--5-----------5-----------|---------------------------|
--0-----------0-----------|--5-----------5-----------|---------------------------|


  Bm7                        E9                         A11                      
--2--2--2--2--2--2--2--2--|--2--2--2--2--2--2--2--2--|--0--0--0--0--0--0--0--0--|
--3--3--3--3--3--3--3--3--|--0--0--0--0--0--0--0--0--|--0--0--0--0--0--0--0--0--|
--2--2--2--2--2--2--2--2--|--1--1--1--1--1--1--1--1--|--6--6--6--6--6--6--6--6--|
--4--4--4--4--4--4--4--4--|--0--0--0--0--0--0--0--0--|--5--5--5--5--5--5--5--5--|
--2-----------2-----------|--2-----------2-----------|--5-----------5-----------|
--------------------------|--0-----------0-----------|--5-----------5-----------|


  D                           Gmaj7                      Gdim        F#7             
--2--2--2--2--2--2--2-2-2--|--2--2--2--2--2--2--2--2--|--6--6--6--6--2----2----2----|
--3--3--3--3--3--3--3-3-3--|--3--3--3--3--3--3--3--3--|--5--5--5--5--2----2----2----|
--2--2--2--2--2--2--2-2-2--|--4--4--4--4--4--4--4--4--|--6--6--6--6--3----3----3----|
--0-----------0------------|--5--5--5--5--5--5--5--5--|--5--5--5--5--2----2----2----|
---------------------------|--------------------------|--------------4----4----4----|
---------------------------|--------------------------|--------------2----2----2----|


  Bm7                        E9                         A11                      
--2--2--2--2--2--2--2--2--|--2--2--2--2--2--2--2--2--|--0--0--0--0--0--0--0--0--|
--3--3--3--3--3--3--3--3--|--0--0--0--0--0--0--0--0--|--0--0--0--0--0--0--0--0--|
--2--2--2--2--2--2--2--2--|--1--1--1--1--1--1--1--1--|--6--6--6--6--6--6--6--6--|
--4--4--4--4--4--4--4--4--|--0--0--0--0--0--0--0--0--|--5--5--5--5--5--5--5--5--|
--2-----------2-----------|--2-----------2-----------|--5-----------5-----------|
--------------------------|--0-----------0-----------|--5-----------5-----------|


  A11                        D                                           
--0--0--0--0--0--0--0--0--|--2----------------|----------2----2----2----|
--0--0--0--0--0--0--0--0--|--3----------------|----------3----3----3----|
--6--6--6--6--6--6--6--6--|--2----------------|----------2----2----2----|
--5--5--5--5--5--5--5--5--|--0----------------|-------------------------|
--5-----------5-----------|-------------------|-------------------------|
--5-----------5-----------|-------------------|-------------------------|


  Bm7                        E9                         A11                      
--2--2--2--2--2--2--2--2--|--2--2--2--2--2--2--2--2--|--0--0--0--0--0--0--0--0--|
--3--3--3--3--3--3--3--3--|--0--0--0--0--0--0--0--0--|--0--0--0--0--0--0--0--0--|
--2--2--2--2--2--2--2--2--|--1--1--1--1--1--1--1--1--|--6--6--6--6--6--6--6--6--|
--4--4--4--4--4--4--4--4--|--0--0--0--0--0--0--0--0--|--5--5--5--5--5--5--5--5--|
--2-----------2-----------|--2-----------2-----------|--5-----------5-----------|
--------------------------|--0-----------0-----------|--5-----------5-----------|


  D                           Bm7                        E9                        
--2--2--2--2--2--2--2-2-2--|--2--2--2--2--2--2--2--2--|--2--2--2--2--2--2--2--2--||
--3--3--3--3--3--3--3-3-3--|--3--3--3--3--3--3--3--3--|--0--0--0--0--0--0--0--0--||
--2--2--2--2--2--2--2-2-2--|--2--2--2--2--2--2--2--2--|--1--1--1--1--1--1--1--1--||
--0-----------0------------|--4--4--4--4--4--4--4--4--|--0--0--0--0--0--0--0--0--||
---------------------------|--2-----------2-----------|--2-----------2-----------||
---------------------------|--------------------------|--0-----------0-----------||


Comments