Wonder Stevie - I Wish Chords & Tabs

 

I Wish Chords & Tabs

Wonder Stevie Chords & Tabs

Version: 1 Type: Bass Tab 0 ratings
1 star 2 stars 3 stars 4 stars 5 stars
comments

I Wish Bass Tab

This is my updated version of the bass tab by Jim O'Reilly & Kieren Walters
It should be right on... so put on those walkin' shoes


I Wish by Stevie Wonder

Verse & Chorus:
[ Tab from: http://www.guitartabs.cc/tabs/w/wonder_stevie/i_wish_btab.html ]
g---------------------------------------------------
d------------------------4-6-8-6--------------------  etc...
a---6-----------3-4-5-6-----------3-4-5-6-----------
e------2-4-6-4-----------------------------2-4-6-4--
     


Bridge:

g------------------------------------------------------------------------------
d-------------------------5-6-8-6------------------------------5-6-7-8---------
a------3-5-----3-5-6-7-8--------------------3-5-----3-5-6-7-8--------------3-5-
e---6-------6----------------------4-6-7-6-------6----------------------6------




transcribed by (©¿©) Paul Wetty
pwetty@hotmail.com

Comments