Won Ton Soup - Weird Day Chords & Tabs

 

Weird Day Chords & Tabs

Won Ton Soup Chords & Tabs

Version: 1 Type: Bass Tab 0 ratings
1 star 2 stars 3 stars 4 stars 5 stars
comments

Weird Day Bass Tab

     Weird day by WON TON SOUP tabbed by Mr man
    very cool tab to learn(learn it tony)
            

        riff 1
G|----------------------------------------------------------
D|----9------------------7----------------------------------
A|--6---6---6--9-------4---4---4-7--------------------------
E|7-------7----------5-------5------------------------------
   riff2
G|----------------------------------------------------------
D|-------------9-7------------------------------------------
A|--6---6---6-----9-7-6---6---------------------------------
E|7---7---7-------------7-----------------------------------
[ Tab from: http://www.guitartabs.cc/tabs/w/won_ton_soup/weird_day_btab.html ]
G|----------------------------------------------------------
D|-------------7-5------------------------------------------
A|--4---4---4------7-5-4---4--------------------------------
E|5---5---5-------------5-----------------------------------

G|----------------------------------------------------------
D|-----------------5-7-5------------------------------------
A|--4---4---4--5-7--------7-5-------------------------------
E|5---5---5-------------------------------------------------

G|----------------------------------------------------------
D|-----------------7-9-7------------------------------------
A|--6---6---6--7-9--------9-7-------------------------------
E|7---7---7-------------------------------------------------
Comments