Wolfmother - Woman Chords & Tabs

 

Woman Chords & Tabs

Wolfmother Chords & Tabs

Version: 1 Type: Tab 2 ratings
1 star 2 stars 3 stars 4 stars 5 stars
comments

Woman Tab

wolfmother-woman

this tab is pretty simple just get the rhythm-listen to it and ull get it
o and for looking up this song.. ur BADASS... 


e|----------------------------------------------|
B|----------------------------------------------|
G|-9---------------9---------------9------------|
D|-9-(x6)-------5--9-(x6)-------5--9-(x6)------5|
A|-7---------------7---------------7------------|
E|--------5h6h7-----------5h6h7----------5h6h7--|

e|----------------------------------------------|
B|----------------------------------------------|
G|----------------2--5--2--5--4--7--------------|
D|-7--5-----------2--5--2--5--4--7--------------|
A|-7--5-----------0--3--0--3--2--5--------------|
E|-5--3-----------------------------------------|

[ Tab from: http://www.guitartabs.cc/tabs/w/wolfmother/woman_tab.html ]
e|----------------------------------------------|
B|----------------------------------------------|
G|-9---------------9---------------9------------|
D|-9-(x6)-------5--9-(x6)-------5--9-(x6)------5|
A|-7---------------7---------------7------------|
E|--------5h6h7-----------5h6h7----------5h6h7--|


e|----------------------------------------------|
B|----------------------------------------------|
G|----------------2--5--2--5--4--7--------------|
D|-7--5-----------2--5--2--5--4--7--------------|
A|-7--5-----------0--3--0--3--2--5--------------|
E|-5--3-----------------------------------------|

ending
e|----------------------------------------------|
B|----------------------------------------------|
G|----------------------------------------------|
D|---------------5----------------2-------------|
A|-7p5-----------5--7p5-----------2-------------|
E|-----7p6--5p3--3------7p6--5p3--0-------------|
Comments