Wolfmother - Wolfmother Chords & Tabs

 

Wolfmother Chords & Tabs

Wolfmother Chords & Tabs

Version: 1 Type: Tab 0 ratings
1 star 2 stars 3 stars 4 stars 5 stars
comments

Wolfmother Tab

   
-------------------------------------------------------------------------------
			     WOLFMOTHER - Self Titled Album
-------------------------------------------------------------------------------

Wolfmother Self Titled Album
Track Listing:

1. Dimension
2. Woman
3. Minds Eye
4. Apple tree
5. White Unicorn


| /  slide up
| \  slide down
| h  hammer-on
| p  pull-off
| ~  vibrato
| +  harmonic
| x  Mute note


Song: Dimension

Tuning: Standard (E, A, D, G, B, E)

Intro
0:09 - 0:21
e|---------------------------------------------------------------------------|
B|---------------------------------------------------------------------------|
G|---------------------------------------------------------------------------|
D|------------------5b-----------------5b----------------5b------------------|
A|-7-7-7-7-7-7--5h7-----7-7-7-7-7-7-5h7----7-7-7-7-7-7-5h7-------------------|
E|-0-0-0-0-0-0----------0-0-0-0-0-0--------0-0-0-0-0-0-----------------------|

0:21 - 0:23  [bass plays this]
e|---------------------------------------------------------------------------|
B|---------------------------------------------------------------------------|
G|---------------------------------------------------------------------------|
D|------------5-3------------------------------------------------------------|
A|-7-7-7-7-7------5-4-3-1----------------------------------------------------|
E|-0-0-0-0-0-----------------------------------------------------------------|


Verse
0:24 - 0:59                  [bass plays this]
e|---------------------------------------------------------------------------|
B|---------------------------------------------------------------------------|
G|---------------------------------------------------------------------------|
D|----------------------------5-3--------------------9~---7~-----------------|
A|-7~---------7~---------7~-------5-4-3-1-7~---------9~---7~-----------------|
E|-0~---------0~---------5~---------------0~---------7~---5~-----------------|


Chrous
1:00 - 1:12
e|---------------------------------------------------------------------------|
B|---------------------------------------------------------------------------|
G|---------------5---5-7-5---------------------------------------------------|
D|-----3-4-5-6-7-----------7-6-5-4-3-----------------------------------------|
A|-3-5--------------------------------5--------------------------------------|
E|---------------------------------------------------------------------------|


Verse
1:13 - 1:48
e|---------------------------------------------------------------------------|
B|---------------------------------------------------------------------------|
G|---------------------------------------------------------------------------|
D|-----------------------7~---5-3--------------------9~--7~------------------|
A|-7~---------7~---------7~-------5-4-3-1-7----------9~--7~------------------|
E|-0~---------0~---------5~---------------0----------7~--5~------------------|


Chrous
1:49 - 1:12
e|---------------------------------------------------------------------------|
B|---------------------------------------------------------------------------|
G|---------------5---5-7-5---------------------------------------------------|
D|-----3-4-5-6-7-----------7-6-5-4-3-----------------------------------------|
A|-3-5--------------------------------5--------------------------------------|
E|---------------------------------------------------------------------------|


2:02 - 2:09
e|---------------------------------------------------------------------------|
B|---------------------------------------------------------------------------|
G|---------------7---7-9-7---------------------------------------------------|
D|-----5-6-7-8-9-----------9-8-7-6-5-----------------------------------------|
A|-5-7--------------------------------7--------------------------------------|
E|---------------------------------------------------------------------------|


2:09 - 2:15
e|---------------------------------------------------------------------------|
B|---------------------------------------------------------------------------|
G|---------------5---5-7-5---------------------------------------------------|
D|-----3-4-5-6-7-----------7-6-5-4-3-----------------------------------------|
A|-3-5--------------------------------5--------------------------------------|
E|---------------------------------------------------------------------------|


Bridge
2:16 - 2:43
e|---------------------------------------------------------------------------|
B|---------------------------------------------------------------------------|
G|---------------------------------------------------------------------------|
D|--------8----7~------------------------------------------------------------| x 3
A|-7~-----8----7~----5---7~--------------------------------------------------|
E|-0~-----6----5~----0---0~--------------------------------------------------|


Chorus
2:44 - 2:58
e|---------------------------------------------------------------------------|
B|---------------------------------------------------------------------------|
G|---------------5---5-7-5---------------------------------------------------|
D|-----3-4-5-6-7-----------7-6-5-4-3-----------------------------------------|
A|-3-5--------------------------------5--------------------------------------|
E|---------------------------------------------------------------------------|


Verse
2:59 - 3:33
e|---------------------------------------------------------------------------|
B|---------------------------------------------------------------------------|
G|---------------------------------------------------------------------------|
D|----------------------------5-3--------------------9---7-------------------|
A|-7----------7----------7--------5-4-3-1-7----------9---7-------------------|
E|-0----------0----------5----------------0----------7---5-------------------|


Chorus
3:34 - 3:47
e|---------------------------------------------------------------------------|
B|---------------------------------------------------------------------------|
G|---------------5---5-7-5---------------------------------------------------|
D|-----3-4-5-6-7-----------7-6-5-4-3-----------------------------------------|
A|-3-5--------------------------------5--------------------------------------|
E|---------------------------------------------------------------------------|


Outro
3:48 ---> End
e|---------------------------------------------------------------------------|
B|---------------------------------------------------------------------------|
G|---------------------------------------------------------------------------|
D|------------------5b-----------------5b----------------5b------------------|
A|-7-7-7-7-7-7--5h7-----7-7-7-7-7-7-5h7----7-7-7-7-7-7-5h7----7~~------------|
E|-0-0-0-0-0-0----------0-0-0-0-0-0--------0-0-0-0-0-0--------0~~------------|

Lyrics:
I fell down in the desert baby
I had nothing but a piece of paper (yeah)
I had to write something down
And then i found myself alone
Then i let go of everything into another dimension

im gonna crash on the hill tonight (yeah)
i have a feeling everything's gonna be alright
then a horse came running to me
said we're gonna go to the sanctuary
then a storm began to blow into another dimension

Purple hazes in the sky
See the angels way up high
all these things we've all strived
to we've seen the reasons why

I fell down in the desert baby
I had nothing but a piece of paper (yeah)
I had to write something down
And then i found myself alone
Then i let go of everything into another dimension





Song: Woman

Tuning: Standard (E, A, D, G, B, E)

Intro
0:00 - 0:13
e|---------------------------------------------------------------------------|
B|---------------------------------------------------------------------------|
G|-999999-------999999---------999999----------------------------------------|
D|-999999-------999999---------999999-------7-5------------------------------| x2
A|-777777----5--777777------5--777777----5--7-5------------------------------|
E|--------5h7-----------5h7-----------5h7---5-3------------------------------|


Verse
0:14 - 0:28
e|---------------------------------------------------------------------------|
B|---------------------------------------------------------------------------|
G|-999999-------999999---------999999----------------------------------------|
D|-999999-------999999---------999999-------7-5------------------------------| x2
A|-777777----5--777777------5--777777----5--7-5------------------------------|
E|--------5h7-----------5h7-----------5h7---5-3------------------------------|


Chorus
0:29 - 0:46
e|---------------------------------------------------------------------------|
B|---------------------------------------------------------------------------|
G|---------------------------------------------------------------------------|
D|---7~---------9~---------7~----------9~-----8~-----9~----------------------|
A|---7~---------9~---------7~----------9~-----8~-----9~----------------------|
E|---5~---------7~---------5~----------7~-----6~-----7~----------------------|

e|---------------------------------------------------------------------------|
B|---------------------------------------------------------------------------|
G|-999999-------999999---------999999----------------------------------------|
D|-999999-------999999---------999999-------7-5------------------------------| x2
A|-777777----5--777777------5--777777----5--7-5------------------------------|
E|--------5h7-----------5h7-----------5h7---5-3------------------------------|


Verse
0:47 - 1:02
e|---------------------------------------------------------------------------|
B|---------------------------------------------------------------------------|
G|-999999-------999999---------999999----------------------------------------|
D|-999999-------999999---------999999-------7-5------------------------------| x2
A|-777777----5--777777------5--777777----5--7-5------------------------------|
E|--------5h7-----------5h7-----------5h7---5-3------------------------------| 


Chorus
1:02 - 1:14
e|---------------------------------------------------------------------------|
B|---------------------------------------------------------------------------|
G|---------------------------------------------------------------------------|
D|---7~---------9~---------7~----------9~-----8~-----9~----------------------|
A|---7~---------9~---------7~----------9~-----8~-----9~----------------------|
E|---5~---------7~---------5~----------7~-----6~-----7~----------------------|


Bridge
1:15 - 1:57
e|---------------------------------------------------------------------------|
B|---------------------------------------------------------------------------|
G|---------------------------------------------------------------------------|
D|---------------------------------------------------------------------------| x4
A|-7p5---5-------------7p5---5-----------7p5---5-------------7p5---5---------|
E|-----7--7-5-7p5-3-5------7---7p5-3-0-------7--7-5-7p5-3-5------7---7p5-7-0-|

e|---------------------------------------------------------------------------|
B|---------------------------------------------------------------------------|
G|------------------------------------------------(keyboard solo)------------|
D|---------------------------------------------------------------------------| x8
A|---------5----------5----------5----------7--------------------------------|
E|-0-5-6-7----0-5-6-7----0-5-6-7----0-5-6-7----------------------------------|


1:58 - 2:00
e|---------------------------------------------------------------------------|
B|---------------------------------------------------------------------------|
G|---------------------------------------------------------------------------|
D|----------------------7-5--------------------------------------------------| x2
A|-7-5-----5------------7-5--------------------------------------------------|
E|-----7-----7-5-7-5-3--5-3--------------------------------------------------|


Verse
2:00 --> End
e|---------------------------------------------------------------------------|
B|---------------------------------------------------------------------------|
G|-999999-------999999---------999999----------------------------------------|
D|-999999-------999999---------999999-------7-5------------------------------| x3
A|-777777----5--777777------5--777777----5--7-5------------------------------|
E|--------5h7-----------5h7-----------5h7---5-3------------------------------| 


Chrous
e|---------------------------------------------------------------------------|
B|---------------------------------------------------------------------------|
G|---------------------------------------------------------------------------|
D|---7~---------9~---------7~----------9~-----8~-----9~----------------------|
A|---7~---------9~---------7~----------9~-----8~-----9~----------------------|
E|---5~---------7~---------5~----------7~-----6~-----7~----------------------|

Lyrics:
Woman, 
You know you, 
Woman, 
You gotta be, 
Woman, 
I've got to feeling alone, 
When you're talking to me, see right through me, 
I've got to feeling alone 

She's a woman, you know what i mean, 
You better listen, listen to me 
She's gonna set you free oh oh yeah.... 

You've come looking for me, like i've got to set you free 
You know i can't free nobody, 
You've come looking for me, like i've got to set you free, 
I can't be nobody. 

She's a woman you know what i mean, 
You better listen,listen to me, 
She's gonna set you free oh oh yeah 

Woman, 
You know you, 
Woman, 
You gotta be, 
Woman, 
I've got to feeling alone, 
When you're talking to me, you see right through me, 
I've got to feeling alone 

She's a woman, you know what i mean, 
You better listen, listen to me 
She's gonna set you free oh oh yeah.... 




Song: Minds Eye

Tuning: Standard (E, A, D, G, B, E)


(Keyboard Intro in Key of A)

Intro
0:12 - 0:40

                                                    [play twice first time] 
e|---------------------------------------------------------------------------|
B|----17----17----17----17----17----17----17----17-[---17---17---17----17-]--|
G|-17----17----17----17----16----16----16----16----[14----14---14---14----]--|
D|---------------------------------------------------------------------------| x2
A|---------------------------------------------------------------------------|
E|---------------------------------------------------------------------------|


Verse
0:40 - 1:33
e|---------------------------------------------------------------------------|
B|---------------------------------------------------------------------------|
G|---------------------------------------------------------------------------|
D|-7~-------5~--------3~-----------------------------------------------------| x3
A|-7~-------5~--------3~-----------------------------------------------------|
E|-5~-------3~--------1~-----------------------------------------------------|

e|---------------------------------------------------------------------------|
B|---------------------------------------------------------------------------|
G|----------------------------------7-9-12-----------------------------------|
D|-7--------5---------3--5--7--9-10-7-9-12-----------------------------------|
A|-7--------5---------3--5--7--9-10-5-7-10-----------------------------------|
E|-5--------3---------1--3--5--7-8-------------------------------------------|


Chorus
1:34 - 1:47
e|---------------------------------------------------------------------------|
B|---------------------------------------------------------------------------|
G|-14--------12-----------------------7-9-12---------------------------------|
D|-14--------12---------3--5--7--9-10-7-9-12---------------------------------|
A|-12--------10---------3--5--7--9-10-5-7-10---------------------------------|
E|----------------------1--3--5--7-8-----------------------------------------|
[ Tab from: http://www.guitartabs.cc/tabs/w/wolfmother/wolfmother_tab.html ]
1:48 - 1:49
e|---------------------------------------------------------------------------|
B|---------------------------------------------------------------------------|
G|-2-------------------------------------------------------------------------|
D|-2-------------------------------------------------------------------------|
A|-0-------------------------------------------------------------------------|
E|---------------------------------------------------------------------------|
1:48 - 2:14
e|---------------------------------------------------------------------------|
B|---------------------------------------------------------------------------|
G|--7-5------7-2-------------------------------------------------------------|
D|--7-5------7-2-------------------------------------------------------------| x5
A|--5-3------5-0-------------------------------------------------------------|
E|---------------------------------------------------------------------------|

2:15 - 2:49
e|---------------------------------------------------------------------------|
B|---------------------------------------------------------------------------|
G|---------------------------------------------------------------------------|
D|-7~-------5~--------3~-----------------------------------------------------| x3
A|-7~-------5~--------3~-----------------------------------------------------|
E|-5~-------3~--------1~-----------------------------------------------------|

e|---------------------------------------------------------------------------|
B|---------------------------------------------------------------------------|
G|----------------------------------7-9-12-----------------------------------|
D|-7--------5---------3--5--7--9-10-7-9-12-----------------------------------|
A|-7--------5---------3--5--7--9-10-5-7-10-----------------------------------|
E|-5--------3---------1--3--5--7-8-------------------------------------------|


2:50 - 2:51
e|---------------------------------------------------------------------------|
B|---------------------------------------------------------------------------|
G|-2-------------------------------------------------------------------------|
D|-2-------------------------------------------------------------------------|
A|-0-------------------------------------------------------------------------|
E|---------------------------------------------------------------------------|
2:52 - 3:10
e|---------------------------------------------------------------------------|
B|---------------------------------------------------------------------------|
G|--7-5------7-2-------------------------------------------------------------|
D|--7-5------7-2-------------------------------------------------------------| x4
A|--5-3------5-0-------------------------------------------------------------|
E|---------------------------------------------------------------------------|

3:11 - 3:15
e|---------------------------------------------------------------------------|
B|---------------------------------------------------------------------------|
G|------------------------7-9-12-2-------------------------------------------|
D|----------3--5--7--9-10-7-9-12-2-------------------------------------------|
A|----------3--5--7--9-10-5-7-10-0-------------------------------------------|
E|----------1--3--5--7-8-----------------------------------------------------|

3:15 --> (Keyboard)
3:22 --> (bass)

3:28
e|---------------------------------------------------------------------------|
B|---------------------------------------------------------------------------|
G|-2~------------------------------------------------------------------------|
D|-2~------------------------------------------------------------------------|
A|-0~------------------------------------------------------------------------|
E|---------------------------------------------------------------------------|

3:29 - 4:06 Let ring after 2nd time
e|---------------------------------------------------------------------------|
B|---------------------------------------------------------------------------|
G|--7-5-----/7-2-------------------------------------------------------------|
D|--7-5-----/7-2-------------------------------------------------------------| x many
A|--5-3-----/5-0-------------------------------------------------------------|
E|---------------------------------------------------------------------------|

4:06 - 4:33
e|---------------------------------------------------------------------------|
B|---------------------------------------------------------------------------|
G|-7~------7~------------------------7-5----7-2------------------------------|
D|-7~------7~-----7-7-7-7-5-5-7~-----7-5----7-2--x6--------------------------|
A|-3~------5~-----7-7-7-7-5-5-7~-----5-3----5-0------------------------------|
E|----------------5-5-5-5-3-3-5~---------------------------------------------|


4:34 --> End
e|---------------------------------------------------------------------------|
B|---------------------------------------------------------------------------|
G|------------------------7-9-12-14~-----------------------------------------|
D|----------3--5--7--9-10-7-9-12-14~--(let ring out)-------------------------|
A|----------3--5--7--9-10-5-7-10-12~-----------------------------------------|
E|----------1--3--5--7-8-----------------------------------------------------|



Song: Apple Tree

Tuning: Standard (E, A, D, G, B, E)

0:00 - 0:07
e|-6---------6---------6-----------------------------------------------------|
B|-6---------6---------6-----------------------------------------------------|
G|-7---------7---------7-----------------------------------------------------|
D|-8---------8---------8-----------------------------------------------------| 
A|-8---------8---------8-----------------------------------------------------|
E|-6---------6---------6-----------------------------------------------------|


0:07 - 0:15
e|---------------------------------------------------------------------------|
B|---------------------------------------------------------------------------|
G|---------------------------------------------------------------------------|
D|-8-8-8-8-------------------------------------------------------------------| x4 
A|-8-8-8-8------6-8-6--------------------------------------------------------|
E|-6-6-6-6--6-9-------9------------------------------------------------------|

0:16 - 0:22
e|-6---------6---------6-----------------------------------------------------|
B|-6---------6---------6-----------------------------------------------------|
G|-7---------7---------7-----------------------------------------------------|
D|-8---------8---------8-----------------------------------------------------| 
A|-8---------8---------8-----------------------------------------------------|
E|-6---------6---------6-----------------------------------------------------|


0:23 - 0:30
e|---------------------------------------------------------------------------|
B|---------------------------------------------------------------------------|
G|---------------------------------------------------------------------------|
D|-8-8-8-8--------------8----------------------------------------------------| x4 
A|-8-8-8-8------6-8-6---8----------------------------------------------------|
E|-6-6-6-6--6-9-------9-6----------------------------------------------------|

0:30 - 1:02
e|---------------------------------------------------------------------------|
B|---------------------------------------------------------------------------|
G|---------------------------------------------------------------------------|
D|-6/8~----------------------------------------------------------------------| x 10 
A|-6/8~----------------------------------------------------------------------|
E|-4/6~----------------------------------------------------------------------|

1:03 - 1:18
e|---------------------------------------------------------------------------|
B|---------------------------------------------------------------------------|
G|---------------------------------------------------------------------------|
D|-8-8-8-8-8-8-8-8-8-8-4/6---------------------------------------------------| x 3
A|-8-8-8-8-8-8-8-8-8-8-4/6---------------------------------------------------|
E|-6-6-6-6-6-6-6-6-6-6-4/6---------------------------------------------------|


1:19 - 1:26
e|-6---------6---------6-----------------------------------------------------|
B|-6---------6---------6-----------------------------------------------------|
G|-7---------7---------7-----------------------------------------------------|
D|-8---------8---------8-----------------------------------------------------| 
A|-8---------8---------8-----------------------------------------------------|
E|-6---------6---------6-----------------------------------------------------|


1:27 - 1:33
e|---------------------------------------------------------------------------|
B|---------------------------------------------------------------------------|
G|---------------------------------------------------------------------------|
D|-8-8-8-8--------------8----------------------------------------------------| x4 
A|-8-8-8-8------6-8-6---8----------------------------------------------------|
E|-6-6-6-6--6-9-------9-6----------------------------------------------------|

1:34 - 1:40
e|-6---------6---------6-----------------------------------------------------|
B|-6---------6---------6-----------------------------------------------------|
G|-7---------7---------7-----------------------------------------------------|
D|-8---------8---------8-----------------------------------------------------| 
A|-8---------8---------8-----------------------------------------------------|
E|-6---------6---------6-----------------------------------------------------|


1:41 - 1:51
e|---------------------------------------------------------------------------|
B|---------------------------------------------------------------------------|
G|---------------------------------------------------------------------------|
D|-8-8-8-8--------------8----------------------------------------------------| x4 
A|-8-8-8-8------6-8-6---8----------------------------------------------------|
E|-6-6-6-6--6-9-------9-6----------------------------------------------------|


1:52 - 1:02
e|---------------------------------------------------------------------------|
B|---------------------------------------------------------------------------|
G|---------------------------------------------------------------------------|
D|-6/8~----------------------------------------------------------------------| x 10 
A|-6/8~----------------------------------------------------------------------|
E|-4/6~----------------------------------------------------------------------|


2:16 - 2:34
e|---------------------------------------------------------------------------|
B|---------------------------------------------------------------------------|
G|---------------------------------------------------------------------------|
D|-8-8-8-8-8-8-8-8-8-8-4/6---------------------------------------------------| x 3
A|-8-8-8-8-8-8-8-8-8-8-4/6---------------------------------------------------|
E|-6-6-6-6-6-6-6-6-6-6-4/6---------------------------------------------------|


2:35 - 2:45
e|---------------------------------------------------------------------------|
B|---------------------------------------------------------------------------|
G|-----------------8-10-10---------------------------------------------------|
D|-4/6-----6-8-8/10----------------------------------------------------------| x5
A|-4/6-6-8-------------------------------------------------------------------|
E|-4/6-----------------------------------------------------------------------|


3:05 - 3:20
e|---------------------------------------------------------------------------|
B|---------------------------------------------------------------------------|
G|---------------------------------------------------------------------------|
D|-8-8-8-8-8-8-8-8-8-8-4/6---------------------------------------------------| x 3
A|-8-8-8-8-8-8-8-8-8-8-4/6---------------------------------------------------|
E|-6-6-6-6-6-6-6-6-6-6-4/6---------------------------------------------------|


3:20 --> End
e|-6---------6---------6-----------------------------------------------------|
B|-6---------6---------6-----------------------------------------------------|
G|-7---------7---------7-----------------------------------------------------|
D|-8---------8---------8-----------------------------------------------------| 
A|-8---------8---------8-----------------------------------------------------|
E|-6---------6---------6-----------------------------------------------------|

Lyrics:
Nyssa, can you remember me, 
I'm the one who picked the apple tree 
Nyssa, can you remember me 
I'm the one who picked the apple tree 

Nyssa, can you remember me, 
I'm the one who picked the apple tree, 
Nyssa sir, can you remember me 
I'm the one who picked the apple tree 

Your doctor is so blind to see, 
Unravel some mystery in me, 
When i see the apples feed the skies, 
All my love i can't recognise, 

Nyssa, can you remember me, 
I'm the one who picked the apple tree, 
Nyssa, can you remember me 
I'm the one who picked the apple tree 

Nyssa, can you remember me, 
I'm the one who picked the apple tree, 
Nyssa, can you remember me 
I'm the one who picked the apple tree 

Your doctor is so blind to see, 
Unravel some mystery in me, 
When i see the apples feed the skies, 
All my love i can't recognise, 

Nyssa, can you remember me, 
I'm the one who picked the apple tree, 
Nyssa, can you remember me 
I'm the one who picked the apple tree





Song: White Unicorn

Tuning: Standard (E, A, D, G, B, E)

Intro/Verse

e|-----------------------------2-2-------------------------------------------|
B|-----------------------------3-3-------------------------------------------|
G|-----------------------------2-2-------------------------------------------|
D|-14-14-14---12-12-12---7-9---0-0-------------------------------------------|
A|-15-15-15---13-13-13---8-10------------------------------------------------|
E|-14-14-14---12-12-12---7-9-------------------------------------------------|

Chorus

e|---------------------------------------------------------------------------|
B|---------------------------------------------------------------------------|
G|---------------------------------------------------------------------------|
D|-3-5---5-8---3-3-3-5-------------------------------------------------------| 
A|-3-5---5-8---3-3-3-5-------------------------------------------------------|
E|-1-3---3-6---1-1-1-3-------------------------------------------------------|


e|---------------------------------------------------------------------------|
B|---------------------------------------------------------------------------|
G|---------------------------------------------------------------------------|
D|-5-------------------------------------------------------------------------|
A|-5---x16-------------------------------------------------------------------|
E|-3-------------------------------------------------------------------------|

Lyrics: 

Have you been to the carnival 
I would like to see you 
Theres a whole lot of people there 
Who would like to be you 
With the white uncorn, across her shoulder 
Makes you think that she might of been 
Someone whos older, ahh yeahhh 

Oh, its on your eyes, 
With a drink from her wine. 
But we drank for the seventh time, 
Now we live in another time 
We could live together.. 

She lives on the borderline, that they call hazel 
And the tent that she lives in,has the name of her lover, 
As she lays down to rest, she dreamt of another 
Of a time when she once had 

Oh, oh, its on your eyes, 
With a drink from her wine. 
But we drank for the seventh time, 
Now we live in another time 
We could live together.. 

Oh, oh, its on your eyes, 
With a drink from her wine. 
But we drank for the seventh time, 
Now we live in another time 
We could live together.. 
We could live together..... 

Comments, Corrections, etc.
grizler@gmail


=(BUSTOUT)=

===============================================================================
Comments