Wolfmother - Witchcraft Chords & Tabs

 

Witchcraft Chords & Tabs

Wolfmother Chords & Tabs

Version: 3 Type: Tab

Witchcraft Tab

   
Artist: Wolfmother
Song: Witch Craft
Released On: Wolfmother (Album)

Transcribed by Paul Stringer (insannic@@hotmail.com)

Transcribed: 26 December 2005

www.wolfmother.com


Tuning: Standard (E A D G B E)


I was messing around the other day and figured out the main riff to the song Witch Craft
but I havn't quite got the rest of it so you'll have to make do with what ive got sorry



Main Riff

E-|----------------------------------------------|-
B-|----------------------------------------------|-
G-|----------------------------------------------|- 
D-|------------5---------------------------------|-  Repeat X4
A-|---7--5--7-----7---5--------------------------|-
E-|-----------------------5--5--3--5--3--0-------|-


Wrote a letter to you and threw it away....
[ Tab from: http://www.guitartabs.cc/tabs/w/wolfmother/witchcraft_tab_ver_3.html ]
E-|----------------------------------------------|-
B-|----------------------------------------------|-
G-|----------------------------------------------|- 
D-|------------5---------------------------------|-  
A-|---7--5--7-----7---5--------------------------|-
E-|-----------------------5--5--3--5--3--0-------|-

Spirit tryed to call me I had no words to say

E-|----------------------------------------------|-
B-|----------------------------------------------|-
G-|----------------------------------------------|- 
D-|------------5---------------------------------|-   
A-|---7--5--7-----7---5--------------------------|-
E-|-----------------------5--5--3--5--3--0-------|-

Sister Can you tell me if its gonna be okay

E-|----------------------------------------------|-
B-|----------------------------------------------|-
G-|----------------------------------------------|- 
D-|------------5---------------------------------|-  
A-|---7--5--7-----7---5--------------------------|-
E-|-----------------------5--5--3--5--3--0-------|-