Wolfmother - White Unicorn Chords & Tabs

 

White Unicorn Chords & Tabs

Wolfmother Chords & Tabs

Version: 4 Type: Tab

White Unicorn Tab

----------------------------------------------------------------------------
			     White Unicorn - Wolfmother
----------------------------------------------------------------------------
Tabbed by: Sean Owen
Email: sjooscar@hotmail.com

This Guitar Tab is 100% correct way to play the White unicorn off the Wolfmother
album.....Its the way exact same way Andrew Stockdale plays the song live at
Homebake 2005 and  The Big Day Out 2006.

Tuning: Drop D

Intro

Riff 1x10 (Play 10 times)

e|---14-14-14---12-12-12---7---9----2-2-2----------------------------------|
B|---15-15-15---13-13-13---8---10---3-3-3----------------------------------|
G|---14-14-14---12-12-12---7---9----2-2-2----------------------------------|
D|-------------------------------------------------------------------------|
A|-------------------------------------------------------------------------|
D|-------------------------------------------------------------------------|


Chorusx4 (Play 4 times)

e|-----------------------------------------------------------------------|
B|-----------------------------------------------------------------------|
G|-----------------------------------------------------------------------|
D|------10-12---12-15---10-10-10-12--------------------------------------|
A|------10-12---12-15---10-10-10-12--------------------------------------|
D|------10-12---12-15---10-10-10-12--------------------------------------|

This is play at= "We could live together, we could live together"

e|-----------------------------------------------------------------------|
B|-----------------------------------------------------------------------|
G|-----------------------------------------------------------------------|
D|--5-5-5-5-5-5-5-5-5-5-5-5-5-5-5-5-5-5-5-5-5-5-5-5-5-5-5-5-5-5-5-5-5-5-5|
A|--5-5-5-5-5-5-5-5-5-5-5-5-5-5-5-5-5-5-5-5-5-5-5-5-5-5-5-5-5-5-5-5-5-5-5|
D|--5-5-5-5-5-5-5-5-5-5-5-5-5-5-5-5-5-5-5-5-5-5-5-5-5-5-5-5-5-5-5-5-5-5-5|


Riff 1x6(Play 6 times)

e|---14-14-14---12-12-12---7---9----2-2-2----------------------------------|
B|---15-15-15---13-13-13---8---10---3-3-3----------------------------------|
G|---14-14-14---12-12-12---7---9----2-2-2----------------------------------|
D|-------------------------------------------------------------------------|
A|-------------------------------------------------------------------------|
D|-------------------------------------------------------------------------|

Chorusx8 (Play 8 times)

e|-----------------------------------------------------------------------|
B|-----------------------------------------------------------------------|
G|-----------------------------------------------------------------------|
D|------10-12---12-15---10-10-10-12--------------------------------------|
A|------10-12---12-15---10-10-10-12--------------------------------------|
D|------10-12---12-15---10-10-10-12--------------------------------------|

Play at= "We could live together, we could live togetheraaaaaaa"

e|-----------------------------------------------------------------------|
B|-----------------------------------------------------------------------|
G|-----------------------------------------------------------------------|
D|--5-5-5-5-5-5-5-5-5-5-5-5-5-5-5-5-5-5-5-5-5-5-5-5-5-5-5-5-5-5-5-5-5-5-5|
A|--5-5-5-5-5-5-5-5-5-5-5-5-5-5-5-5-5-5-5-5-5-5-5-5-5-5-5-5-5-5-5-5-5-5-5|
D|--5-5-5-5-5-5-5-5-5-5-5-5-5-5-5-5-5-5-5-5-5-5-5-5-5-5-5-5-5-5-5-5-5-5-5|

Play this riff x6 (Play 6 times)

e|---14-14-14---12-12-12---15---17---14-14-14------------------------------|
B|---15-15-15---13-13-13---16---18---15-15-15------------------------------|
G|---14-14-14---12-12-12---15---17---14-14-14------------------------------|
D|-------------------------------------------------------------------------|
A|-------------------------------------------------------------------------|
E|-------------------------------------------------------------------------|

Then Play this riffx5 (Play 5 times)
[ Tab from: http://www.guitartabs.cc/tabs/w/wolfmother/white_unicorn_tab_ver_4.html ]
e|---14-14-14---12-12-12---7---9----2-2-2----------------------------------|
B|---15-15-15---13-13-13---8---10---3-3-3----------------------------------|
G|---14-14-14---12-12-12---7---9----2-2-2----------------------------------|
D|-------------------------------------------------------------------------|
A|-------------------------------------------------------------------------|
D|-------------------------------------------------------------------------|

Then finish with this before it continues into the piano interlude.

e|---14-15-15--------------------------------------------------------------|
B|---15-15-15--------------------------------------------------------------|
G|---14-14-14--------------------------------------------------------------|
D|-------------------------------------------------------------------------|
A|-------------------------------------------------------------------------|
D|-------------------------------------------------------------------------|

Then when the interlude finishes it's

e|---15-15-15---17-17-17---15-15-15---17-17-17---15-15-15---17-17-17-------|
B|---16-16-16---18-18-18---16-16-16---18-18-18---16-16-16---18-18-18-------|
G|---15-15-15---17-17-17---15-15-15---17-17-17---15-15-15---17-17-17-------|
D|-------------------------------------------------------------------------|
A|-------------------------------------------------------------------------|
D|-------------------------------------------------------------------------|

e|---15-15-15---17-17-17---15-15-15---17-17-17---15-15-15---17-17-17-------|
B|---16-16-16---18-18-18---16-16-16---18-18-18---16-16-16---18-18-18-------|
G|---15-15-15---17-17-17---15-15-15---17-17-17---15-15-15---17-17-17-------|
D|-------------------------------------------------------------------------|
A|-------------------------------------------------------------------------|
D|-------------------------------------------------------------------------|

e|---15-15-15---17-17-17---15-15-15---17-17-17---19-19-19---19-19-19-------|
B|---16-16-16---18-18-18---16-16-16---18-18-18---20-20-20---20-20-20-------|
G|---15-15-15---17-17-17---15-15-15---17-17-17---19-19-19---19-19-19-------|
D|-------------------------------------------------------------------------|
A|-------------------------------------------------------------------------|
D|-------------------------------------------------------------------------|

e|---19-19-19---19-19-19---19-19-19---19-19-19---19-19-19---19-19-19-------|
B|---20-20-20---20-20-20---20-20-20---20-20-20---20-20-20---20-20-20-------|
G|---19-19-19---19-19-19---19-19-19---19-19-19---19-19-19---19-19-19-------|
D|-------------------------------------------------------------------------|
A|-------------------------------------------------------------------------|
D|-------------------------------------------------------------------------|

e|---19-19-19---19-19-19---19-19-19---19-19-19-----------------------------|
B|---20-20-20---20-20-20---20-20-20---20-20-20-----------------------------|
G|---19-19-19---19-19-19---19-19-19---19-19-19-----------------------------|
D|-------------------------------------------------------------------------|
A|-------------------------------------------------------------------------|
D|-------------------------------------------------------------------------|

Then the drums come in and its's

Chorusx6 (Play 6 times)

e|-----------------------------------------------------------------------|
B|-----------------------------------------------------------------------|
G|-----------------------------------------------------------------------|
D|------10-12---12-15---10-10-10-12--------------------------------------|
A|------10-12---12-15---10-10-10-12--------------------------------------|
D|------10-12---12-15---10-10-10-12--------------------------------------|

Play at= "We could live together, we could live togetheraaaaaaa"

e|-----------------------------------------------------------------------|
B|-----------------------------------------------------------------------|
G|-----------------------------------------------------------------------|
D|--5-5-5-5-5-5-5-5-5-5-5-5-5-5-5-5-5-5-5-5-5-5-5-5-5-5-5-5-5-5-5-5-5-5-5|
A|--5-5-5-5-5-5-5-5-5-5-5-5-5-5-5-5-5-5-5-5-5-5-5-5-5-5-5-5-5-5-5-5-5-5-5|
D|--5-5-5-5-5-5-5-5-5-5-5-5-5-5-5-5-5-5-5-5-5-5-5-5-5-5-5-5-5-5-5-5-5-5-5|

Then at the very end finsh with a soft

e|---14--------------------------------------------------------------------|
B|---15--------------------------------------------------------------------|
G|---14--------------------------------------------------------------------|
D|-------------------------------------------------------------------------|
A|-------------------------------------------------------------------------|
D|-------------------------------------------------------------------------|