Wolfmother - White Unicorn Chords & Tabs

 

White Unicorn Chords & Tabs

Wolfmother Chords & Tabs

Version: 3 Type: Tab

White Unicorn Tab

Wolfmother - White Unicorn

Tuning: Standard

Intro/verse
e|------14-14-14----12-12-12----7--9----2-2-2------------------------------|
B|------15-15-15----13-13-13----8--10---3-3-3------------------------------|
G|------14-14-14----12-12-12----7--9----2-2-2------------------------------|
D|-------------------------------------------------------------------------|
A|-------------------------------------------------------------------------|
E|-------------------------------------------------------------------------|

[ Tab from: http://www.guitartabs.cc/tabs/w/wolfmother/white_unicorn_tab_ver_3.html ]
Chorus
e|-------------------------------------------------------------------------|
B|-------------------------------------------------------------------------|
G|-----5--7---7--10--5-5-5-7-----------------------------------------------|
D|-----5--7---7--10--5-5-5-7-----------------------------------------------|
A|-----3--5---5--8---3-3-3-5-----------------------------------------------|
E|-------------------------------------------------------------------------|


Post Chorus
e|-------------------------------------------------------------------------|
B|-------------------------------------------------------------------------|
G|-------------------------------------------------------------------------|
D|-----5-------------------------------------------------------------------|
A|-----5-x16---------------------------------------------------------------|
E|-----3-------------------------------------------------------------------|

Tabbed by Baba O'Reilly
comments; gringorulz@hotmail.com