Wolfmother - White Unicorn Chords & Tabs

 

White Unicorn Chords & Tabs

Wolfmother Chords & Tabs

Version: 2 Type: Tab

White Unicorn Tab

   
-------------------------------------------------------------------------------
			     White Unicorn - Wolfmother
-------------------------------------------------------------------------------
Tabbed by:Smurrt
Email:murray685@hotmail.com

Tuning:Standard

Intro
Riff 1
e|---14-14-14---12-12-12---7---9----2-2-2------------------------------------|
B|---15-15-15---13-13-13---8---10---3-3-3------------------------------------|
G|---14-14-14---12-12-12---7---9----2-2-2------------------------------------|
D|---------------------------------------------------------------------------|
A|---------------------------------------------------------------------------|
E|---------------------------------------------------------------------------|

e|---------------------------------------------------------------------------|
B|---------------------------------------------------------------------------|
G|--5-7----7-10----5-5-5-7---------------------------------------------------|
D|--5-7----7-10----5-5-5-7---------------------------------------------------|
A|--3-5----5--8----3-3-3-5---------------------------------------------------|
E|---------------------------------------------------------------------------|

e|---------------------------------------------------------------------------|
B|---------------------------------------------------------------------------|
G|---------------------------------------------------------------------------|
D|--5-5-5-5-5-5-5-5-5-5-5-5-5-5-5-5-5-5-5-5-5-5-5-5-5-5-5-5-5-5-5-5-5-5-5----|
A|--5-5-5-5-5-5-5-5-5-5-5-5-5-5-5-5-3-3-5-5-5-5-5-5-5-5-5-5-5-5-5-5-5-5-5----|
E|--3-3-3-3-3-3-3-3-3-3-3-3-3-3-3-3-3-3-3-3-3-3-3-3-3-3-3-3-3-3-3-3-3-3-3----|

e|---14-14-14---12-12-12---7---9----2-2-2------------------------------------|
B|---15-15-15---13-13-13---8---10---3-3-3------------------------------------|
G|---14-14-14---12-12-12---7---9----2-2-2------------------------------------|
D|---------------------------------------------------------------------------|
A|---------------------------------------------------------------------------|
E|---------------------------------------------------------------------------|

e|---14-14-14---12-12-12---15---17---14-14-14--------------------------------|
B|---15-15-15---13-13-13---16---18---15-15-15--------------------------------|
G|---14-14-14---12-12-12---15---17---14-14-14--------------------------------|
D|---------------------------------------------------------------------------|
A|---------------------------------------------------------------------------|
E|---------------------------------------------------------------------------|
[ Tab from: http://www.guitartabs.cc/tabs/w/wolfmother/white_unicorn_tab_ver_2.html ]
e|---15-15-15---17-17-17---15-15-15---17-17-17---15-15-15---17-17-17---------|
B|---16-16-16---18-18-18---16-16-16---18-18-18---16-16-16---18-18-18---------|
G|---15-15-15---17-17-17---15-15-15---17-17-17---15-15-15---17-17-17---------|
D|---------------------------------------------------------------------------|
A|---------------------------------------------------------------------------|
E|---------------------------------------------------------------------------|

e|---15-15-15---17-17-17---15-15-15---17-17-17---15-15-15---17-17-17---------|
B|---16-16-16---18-18-18---16-16-16---18-18-18---16-16-16---18-18-18---------|
G|---15-15-15---17-17-17---15-15-15---17-17-17---15-15-15---17-17-17---------|
D|---------------------------------------------------------------------------|
A|---------------------------------------------------------------------------|
E|---------------------------------------------------------------------------|

e|---15-15-15---17-17-17---15-15-15---17-17-17---19-19-19---19-19-19---------|
B|---16-16-16---18-18-18---16-16-16---18-18-18---20-20-20---20-20-20---------|
G|---15-15-15---17-17-17---15-15-15---17-17-17---19-19-19---19-19-19---------|
D|---------------------------------------------------------------------------|
A|---------------------------------------------------------------------------|
E|---------------------------------------------------------------------------|

e|---19-19-19---19-19-19---19-19-19---19-19-19---19-19-19---19-19-19---------|
B|---20-20-20---20-20-20---20-20-20---20-20-20---20-20-20---20-20-20---------|
G|---19-19-19---19-19-19---19-19-19---19-19-19---19-19-19---19-19-19---------|
D|---------------------------------------------------------------------------|
A|---------------------------------------------------------------------------|
E|---------------------------------------------------------------------------|

e|---19-19-19---19-19-19---19-19-19---19-19-19-------------------------------|
B|---20-20-20---20-20-20---20-20-20---20-20-20-------------------------------|
G|---19-19-19---19-19-19---19-19-19---19-19-19-------------------------------|
D|---------------------------------------------------------------------------|
A|---------------------------------------------------------------------------|
E|---------------------------------------------------------------------------|

Outro
e|---------------------------------------------------------------------------|
B|---------------------------------------------------------------------------|
G|---------------------------------------------------------------------------|
D|--5-5-5-5-5-5-5-5-5-5-5-5-5-5-5-5-5-5-5-5-5-5-5-5-5-5-5-5-5-5-5-5-5-5-5/7--|
A|--5-5-5-5-5-5-5-5-5-5-5-5-5-5-5-5-3-3-5-5-5-5-5-5-5-5-5-5-5-5-5-5-5-3-3/5--|
E|--3-3-3-3-3-3-3-3-3-3-3-3-3-3-3-3-3-3-3-3-3-3-3-3-3-3-3-3-3-3-3-3-3-3-3----|

| /  slide up
| \  slide down
| h  hammer-on
| p  pull-off
| ~  vibrato
| +  harmonic
| x  Mute note
===============================================================================