Wolfmother - Where Eagles Have Been Chords & Tabs

 

Where Eagles Have Been Chords & Tabs

Wolfmother Chords & Tabs

Version: 1 Type: Bass Tab

Where Eagles Have Been Bass Tab

Bass Tab
Artist: Wolfmother
Song: Where Eagles Have Been
Tabber: Sam C

Standard Tuning (EADG)

Listen to the track to get the proper timing.

Also many parts of this tab can be played higher up the neck. I'm not sayin I'm 100% right,
but it sounds alrite and isn't too hard to play.

Pre-Chorus
G----------------------------------------------------|
D----------------------------------------------------|
A-----------------------------8--------8--8--10--10--|
E---8---10---10---8--8---10-------10-----------------|

Chorus 1
G------------------------------------------|
D------------------------------------------|
A------------------------------------------|
E--8---10------8------5------3-------------|

Verse
G----------------------10--------------------- |
D------12------10--12------12--10------------- |  \
A----------------------------------12------ -- |
E--10------10--------------------------10-- -- |
                                              > Repeat as necessary
G----------------------10------------------ -- |
D------12------10--12------12--10---------- -- |
A----------------------------------12--------- |  /
E--10------10--------------------------------- |

G------12--10------------------------------|
D--------------12--10-------------10--12---|
A--10---------------------10--12-----------|
E----------------------8-------------------|

Chorus 2
G-------------------------------------------- |
D-----------12--10-10-12\---------10--8-8-10\ |
A-------------------------------------------- |
E--8---10/-----------------6--8/------------- |
[ Tab from: http://www.guitartabs.cc/tabs/w/wolfmother/where_eagles_have_been_btab.html ]
G-------------------------------------|
D--------7--5-5-7\-------5--3-3-5-----|
A-------------------------------------|
E-3--5/--------------1--3-------------|

Big breakdown/ solo thingie at near the end

G-----------------------------------------------------|
D-----------------------------------------------------|
A------------------------------8----------------------|
E--10------------------10------------8----------------|
   Let Ring
G-------------------------|
D------10------10-----10--|
A--10------10------10-----|
E-------------------------|

G-----------------------------------------------------------------------------------------------------------|
D----------------------------------------------------------------------------------------10------10-----10--|   x2
A-----------------------------------8--8-8--8-8--8-8--8--8---------------------------10------10------10-----|
E--10--10-10--10-10--10-10--10--10--------------------------8--8-8--8-8--8-8--8--8--------------------------|

G------------------------------------------------------ |
D------------------------------------------------------ |  \
A--------------------------------------------------  -- |
E---5--5-5--5-5--5-5--5--5--8--8-8--8-8--8-8--8-8--  -- |
              							 > Repeat as necessary
G--------------------------------------------------  -- |
D--------------------------------------------------  -- |
A------------------------------------------------------ |  /  <-finish solo part by playin this second half a few times.
E---10--10-10--10-10--10-10--10-10--8------------------ |

Then go back to the verse riff to finish off.