Wolfmother - The White Unicorn Chords & Tabs

 

The White Unicorn Chords & Tabs

Wolfmother Chords & Tabs

Version: 1 Type: Tab 2 ratings
1 star 2 stars 3 stars 4 stars 5 stars
comments

The White Unicorn Tab

##################################################################################
# This file is the author's own work and represents their interpretation of the  #
# song. You may only use this file for private study, scholarship, or research.  #
##################################################################################

Hay all, this is the open start to wolfmother song
Now copy the sound well and slide ur fingers when playing this......
when playing hit the string above D if u like give more sound tune.....

[ Tab from: http://www.guitartabs.cc/tabs/w/wolfmother/the_white_unicorn_tab.html ]
E |/14 14 14-----------12 12 12----------7--9------2 2 2--|  
B |/15 15 15-----------13 13 13----------8--10-----3 3 3--|  
G |/14 14 14-----------12 12 12----------7--9------2 2 2--|
D |-------------------------------------------------------|
A |-------------------------------------------------------|
E |-------------------------------------------------------|
 OK PLAY THIS 9X TIMES

THen swich and get heavy......Make ur amp nice and loud and thick thrusing

E |---------------------------------------------------------|
B |---------------------------------------------------------|
G |5/7----7/10-------5--5--5/7------------------------------|
D |5/7----7/10-------5--5--5/7------------------------------|
A |3/7----5/8--------3--3--3/5------------------------------|
E |---------------------------------------------------------|

PLay 4X times then this

E |---------------------------------------------------------|
B |---------------------------------------------------------|
G |---------------------------------------------------------|
D |-5555555555555555555555555555555-------------------------|
A |-5555555555555555555555555555555-------------------------|
E |-3333333333333333333333333333333-------------------------|

The back to the start again, if that sounds good to u, turn it up
Comments