Wolfmother - Minds Eye Complete Chords & Tabs

 

Minds Eye Complete Chords & Tabs

Wolfmother Chords & Tabs

Version: 1 Type: Tab 7 ratings
1 star 2 stars 3 stars 4 stars 5 stars
comments

Minds Eye Complete Tab

   
I was listening to the new album and it songs extactly the same. 
This is my first tab so any feedback would be great.
Wolfmother ROCKS

INTRO
|---12--12--12--12--12--12--12--12-|
|-11--11--11--11--12--12--12--12---|
|----------------------------------|
|----------------------------------|
|----------------------------------|
|----------------------------------|

|---12--12--12--12--12--12--12--12-|
|-10--10--10--10--10--10--10--10---|
|----------------------------------| x2
|----------------------------------|
|----------------------------------|
|----------------------------------|

VERSE
  Amin    Gmaj    Fmaj
|--5-------3-------1---------------|
|--5-------3-------1---------------|
|--5-------4-------2---------------| x4
|--7-------5-------3---------------|
|--7-------5-------3---------------|
|--5-------3-------1---------------|

|----------------------------------|
|----------------------------------|
|----------------------------------| x2
|-3--5--7--9--10--12--12--17-------|
|-3--5--7--9--10--12--12--17-------|
|-1--3--5--7--8---10--12--15-------|

CHORUS

|----------------------------------|
|----------------------------------|
|----------------------------------| x3
|--7----12----10----12-------------|
|--7----12----10----12-------------|
|--5----10----8-----10-------------|

VERSE
  Amin    Gmaj    Fmaj
|--5-------3-------1---------------|
|--5-------3-------1---------------|
|--5-------4-------2---------------| x2
|--7-------5-------3---------------|
|--7-------5-------3---------------|
|--5-------3-------1---------------|
[ Tab from: http://www.guitartabs.cc/tabs/w/wolfmother/minds_eye_complete_tab.html ]
|----------------------------------|
|----------------------------------|
|----------------------------------| x2
|-3--5--7--9--10--12--12--17-------|
|-3--5--7--9--10--12--12--17-------|
|-1--3--5--7--8---10--12--15-------|

CHORUS

|----------------------------------|
|----------------------------------|
|----------------------------------| x3
|--7----12----10----12-------------|
|--7----12----10----12-------------|
|--5----10----8-----10-------------|

Keyboard Solo
E C# A E C# A E C# A E C# A
A F# D A F# D
G E C G E C G E C G E C
A F# D A F# D

THEREFORE
|----------------------------------|
|-5--5--5--5--10--10--8--8--8--8---|
|--6--6--6--6--11--11--9--9--9--9--|
|---7--7--7--7--12--12--10-10-10-10|
|----------------------------------|
|----------------------------------|

|----------------------------------|
|-10--10---------------------------|
|--11--11--------------------------| x6
|---12--12-------------------------|
|----------------------------------|
|----------------------------------|

Play chorus over this if you have a keyboard
followed by

|----------------------------------|
|----------------------------------|
|----------------------------------|
|-3--5--7--9--10--12--12--17-------|
|-3--5--7--9--10--12--12--17-------|
|-1--3--5--7--8---10--12--15-------|

to finish the song

enjoy learning as much as i did
Comments