Wolfmother - Joker And The Thief Chords & Tabs

 

Joker And The Thief Chords & Tabs

Wolfmother Chords & Tabs

Version: 2 Type: Tab

Joker And The Thief Tab

Title:  Joker and the Theif
Artist: Wolfmother
Album:  Wolfmother
Transcribed by: Craig (daskeg@hotmail.com)


Tuning = Drop D

Intro: (with phaser)
e|-----------------------------------------------|
B|-----------------------------------------------|
G|---------0h5h7---------0h5h7-------------------|
D|---0h5h7---------0h5h7-------------------------|
A|-----------------------------------------------|
D|-----------------------------------------------| 



Verse: (Fuzz Distortion)
e|-----------------------------------------------|
B|-----------------------------------------------|
G|-----------------------------------------------|
D|--12-12-12-12-12-12--10h12-10h12-10h12---------|
A|--12-12-12-12-12-12--10h12-10h12-10h12---------|
D|--12-12-12-12-12-12--10h12-10h12-10h12---------|   x3

e|-----------------------------------------------|
B|-----------------------------------------------|
G|-----------------------------------------------|
D|--15-15-15-15-/-17-17---15h17-15h17-15-/-------|
A|--15-15-15-15-/-17-17---15h17-15h17-15-/-------|
D|--15-15-15-15-/-17-17---15h17-15h17-15-/-------|   x1



e|-----------------------------------------------|
B|-----------------------------------------------|
G|-----------------------------------------------|
D|-/12-12-12-12-12-12--10h12-10h12-10h12---------|
A|-/12-12-12-12-12-12--10h12-10h12-10h12---------|
D|-/12-12-12-12-12-12--10h12-10h12-10h12---------|   x5

e|-----------------------------------------------|
B|-----------------------------------------------|
G|-----------------------------------------------|
D|--15-15-15-15-/-17-17---15h17-15h17-15-/-------|
A|--15-15-15-15-/-17-17---15h17-15h17-15-/-------|
D|--15-15-15-15-/-17-17---15h17-15h17-15-/-------|   x1



e|-----------------------------------------------|
B|-----------------------------------------------|
G|-----------------------------------------------|
D|-/12-12-12-12-12-12--10h12-10h12-10h12---------|
A|-/12-12-12-12-12-12--10h12-10h12-10h12---------|
D|-/12-12-12-12-12-12--10h12-10h12-10h12---------|   x5

e|-----------------------------------------------|
B|-----------------------------------------------|
G|-----------------------------------------------|
D|--15-----------------17------------------------|
A|--15-----------------17------------------------|
D|--15-----------------17------------------------|   x1



Chorus: (same as Intro)
e|-----------------------------------------------|
B|-----------------------------------------------|
G|---------0h5h7---------0h5h7-------------------|
D|---0h5h7---------0h5h7-------------------------|
A|-----------------------------------------------|
D|-----------------------------------------------| 



Verse 2: 
e|-----------------------------------------------|
B|-----------------------------------------------|
G|-----------------------------------------------|
D|--12-12-12-12-12-12--10h12-10h12-10h12---------|
A|--12-12-12-12-12-12--10h12-10h12-10h12---------|
D|--12-12-12-12-12-12--10h12-10h12-10h12---------|   x5

e|-----------------------------------------------|
B|-----------------------------------------------|
G|-----------------------------------------------|
D|--15-----------------17------------------------|
A|--15-----------------17------------------------|
D|--15-----------------17------------------------|   x1



e|-----------------------------------------------|
B|-----------------------------------------------|
G|-----------------------------------------------|
D|--12-12-12-12-12-12--10h12-10h12-10h12---------|
A|--12-12-12-12-12-12--10h12-10h12-10h12---------|
D|--12-12-12-12-12-12--10h12-10h12-10h12---------|   x5
[ Tab from: http://www.guitartabs.cc/tabs/w/wolfmother/joker_and_the_thief_tab_ver_2.html ]
e|-----------------------------------------------|
B|-----------------------------------------------|
G|-----------------------------------------------|
D|--15-----------------17------------------------|
A|--15-----------------17------------------------|
D|--15-----------------17------------------------|   x1


Chorus: (same as Intro)
e|-----------------------------------------------|
B|-----------------------------------------------|
G|---------0h5h7---------0h5h7-------------------|
D|---0h5h7---------0h5h7-------------------------|
A|-----------------------------------------------|
D|-----------------------------------------------| 



Solo:
e|---------------------------------------------------------|
B|---------------------------------------------------------|
G|---------------------------------------------------------|
D|-------7-5-4-5-4-----------7-5-4-5-4---------------------|
A|--5--------------5-3-----------------7-5-----------------|
D|---------------------------------------------------------|

e|---------------------------------------------------------|
B|---------------------------------------------------------|
G|---------------------------------------------------------|
D|-------7-5-4-5-4-----------7-5-4-5-4-5--5/7--7/9---9/12--|
A|-----------------5-3-------------------------------------|
D|---------------------------------------------------------|



e|---------------------------------------------------------|
B|---------------------------------------------------------|
G|------14-12-11-12-11---------14-12-11-12-11--------------|
D|---------------------12-10------------------14-12--------|
A|---------------------------------------------------------|
D|---------------------------------------------------------|

e|---------------------------------------------------------|
B|---------------------------------------------------------|
G|-----14-12-11-12-11----------14-12-11-12-11--12--12/14---|
D|---------------------12-10-------------------------------|
A|---------------------------------------------------------|
D|---------------------------------------------------------|


e|---------------------------------------------------------|
B|---------------------------------------------------------|
G|--14-14/16--16b17----------------------------------------|
D|---------------------------------------------------------|
A|---------------------------------------------------------|
D|---------------------------------------------------------|


e|---------------------------------------------------------|
B|------------------h18---------------------h20------------|
G|---19-19-19-19p17----------19-19-19-19p17----------------|
D|---------------------------------------------------------|
A|---------------------------------------------------------|
D|---------------------------------------------------------|  x3

e|---------------------------------------------------------|
B|---20b21---20p18-----------------------------------------|
G|-----------------h19->->->->->---------------------------|
D|-------------------------------------15----------17------|
A|-------------------------------------15----------17------|
D|-------------------------------------15----------17------|




Outro:
e|-----------------------------------------------|
B|-----------------------------------------------|
G|-----------------------------------------------|
D|--12-12-12-12-12-12--10h12-10h12-10h12---------|
A|--12-12-12-12-12-12--10h12-10h12-10h12---------|
D|--12-12-12-12-12-12--10h12-10h12-10h12---------| x5

e|-----------------------------------------------|
B|-----------------------------------------------|
G|-----------------------------------------------|
D|--15---17---15---17---------15-------17--------|
A|--15---17---15---17---------15-x8----17-x8-----|
D|--15---17---15---17---------15-------17--------|

e|-----------------------------------------------|
B|-----------------------------------------------|
G|-----------------------------------------------|
D|--12->->->->->->-------------------------------|
A|--12->->->->->->-------------------------------|
D|--12->->->->->->-------------------------------|


Thanks to everyone for feedback and comments.