Wolfgang Amadeus Mozart - Turkish March Chords & Tabs

 

Turkish March Chords & Tabs

Wolfgang Amadeus Mozart Chords & Tabs

Version: 2 Type: Tab 0 ratings
1 star 2 stars 3 stars 4 stars 5 stars
comments

Turkish March Tab

   
Tabbed by: Cuong & Axel
Submitted by: r_lightning

Okey this song got some reeaally great picking, and it's quite 
difficult! 

Alright: Mozart's the man!


                                                                       
E||--------------|----------------|--0-------------|--7h5-4h5-7h5-4h5-|
B||--------------|--1-----3h1-0h1-|-----1--6h5-4h5-|------------------|
G||------4h2-1h2-|-----2----------|-----2----------|------------------|
D||--------------|-----2----------|----------------|------------------|
A||--------------|--0-------------|--0-------------|--0-------0-------|
E||--------------|----------------|----------------|------0-------0---|


                                                                                
--8-----5--8--|----7------------|----7------------|----7-----------|--0--------|
-----5--------|--8---10--8--10--|--8---10--8--10--|--8---10--8--7--|--0--------|
-----5--------|------11--9--11--|------11--9--11--|------11--9--8--|--0--------|
--------------|-----------------|-----------------|----------------|-----------|
--0-----------|-----------------|-----------------|----------------|-----------|
--------------|----0-----7------|----0-----7------|----0-----7-----|--0--------|


                                                                              
|-------------|--3--3--5h3-----|--------------|--3--3--5h3-----|-------------|
|---5----6----|--5---------6-5-|--3-----5--6--|--5---------6-5-|--3----1--3--|
|*------------|----------------|--4-----------|----------------|--4----------|
|*------------|----------------|-----5--------|----------------|-------------|
|-------------|----------------|--------------|----------------|-------------|
|-------------|----------------|--3-----------|----------------|--3----------|

[ Tab from: http://www.guitartabs.cc/tabs/w/wolfgang_amadeus_mozart/turkish_march_tab_ver_2.html ]
                                                                 
--0--0--1h0-----|--------------|--0--0--1h0-----|---------------|
--1---------3-1-|--0-----1--3--|--1---------3-1-|--0------------|
----------------|--1-----------|----------------|--1------------|
----------------|-----2--------|----------------|-------4h2-1h2-|
--0-------------|--------------|--0-------------|---------------|
----------------|--0-----------|----------------|--0------------|


                                                                      
----------------|--0-------------|--7h5-4h5-7h5-4h5-|--8----------7--|
--1-----3h1-0h1-|-----1--6h5-4h5-|------------------|-----10--10-----|
-----2----------|-----2----------|------------------|-----8----------|
-----2----------|----------------|------------------|----------------|
--0-------------|--0-------------|--0-------0-------|--8-------------|
----------------|----------------|------0-------0---|----------------|


                                                                             
--8--7--5--4--|--5--0--1-----|----------------|------------||-------------|
--------------|-----------3--|--1-----0h1h0---|------------||---10----12--|
--9--7--5--4--|--5-----2-----|-----2--1-----2-|--2--------*||*------------|
--------------|--------0-----|-----2----------|-----------*||*------------|
--0-----------|--0-----------|--0-------------|--0---------||-------------|
--------0-----|--------------|--------0-------|------------||-------------|


                                                                     
--9--------------|--0--------------|------------7--|-----0----------|
--10-----10--12--|--10--12--10--9--|--7--9--10-----|--9-----10--12--|
--9--------------|--9--------------|--7-----8------|--9-------------|
-----------------|-----------------|--0------------|----------------|
--0---0----------|--0-------0------|---------------|----------------|
-----------------|-----------------|--------7------|--0-------------|


                                                                 
--9--------------|--9--------------|-----7-----0--|--5---------||
--10-----10--12--|--10--12--10--9--|--7-----9-----|------------||
--9--------------|--9--------------|--7-----7-----|--6--------*||
-----------------|-----------------|--0-----------|-----------*||
--0---0----------|--0-------0------|--------------|--0---------||
-----------------|-----------------|--------------|------------||



| /  slide up
| \  slide down
| h  hammer-on
| p  pull-off
| ~  vibrato
| +  harmonic
| x  Mute note
===============================================================================
Comments