Wolfgang Amadeus Mozart - Etude Chords & Tabs

 

Etude Chords & Tabs

Wolfgang Amadeus Mozart Chords & Tabs

Version: 1 Type: Tab 0 ratings
1 star 2 stars 3 stars 4 stars 5 stars
comments

Etude Tab

   
-------------------------------------------------------------------------------
			  Etude-Mozart (the composer)
-------------------------------------------------------------------------------
Tabbed by:Munit
Email:Myoung_2009@yahoo.com

Tuning:standard(EADGBe)

e|-------3-----0------------------0------------------1------------0---------|
B|--------------------------1------------------3------------------------1---|
G|----0-----0-----0------0-----0-----0------0-----0-----0------0-----0-----0|
D|--------------------------------------------------------------------------|
A|-3------------------3------------------2------------------3---------------|
E|--------------------------------------------------------------------------|

e|-------3-----0------------------0------------1------------0|--------------|
B|--------------------------1------------------------3------1|-------3-----0|
G|----0-----0-----0------0-----0-----0------0-----0-----0---0|----0-----0---|
D|----------------------------------------------------------2|-3------------|
A|-3------------------3-------------------------------------3|--------------|
E|---------------------------------------3-------------------|--------------|

e|----------0-----------------1-----------------0---------------------------|
B|----------------1-----------------3-----------------1------------3-----0--|
G|-0-----0-----0-----0-----0-----0-----0-----0-----0-----0------0-----0-----|
D|----2-----------------0------------------------------------3--------------|
A|----------------------------------------3---------------------------------|
E|--------------------------------------------------------------------------|

e|----------0-----------------1------------0|-------0-----0------------0----|
B|----------------1-----------------3------1|----1-----1-----1------3-----3-|
G|-0-----0-----0-----0-----0-----0-----0---0|-2------------------1----------|
D|----2------------------------------------2|-------------------------------|
A|-----------------------------------------3|-------------------------------|
E|----------------------3-------------------|-------------------------------|

e|-0------------0-----0------------0------------------0-----0------------0--|
B|----3------1-----1-----1------0-----3--0---------1-----1-----1------3-----|
G|--------2------------------1--------------1---2------------------1--------|
D|--------------------------------------------------------------------------|
A|--------------------------------------------------------------------------|
E|--------------------------------------------------------------------------|

e|----0------------0-----0------------0--------------0------------------0---|
B|-3-----3------1-----1-----1------0-----3--0-----------3--1--0------1-----1|
G|-----------2------------------1--------------1--2---------------2---------|
D|--------------------------------------------------------------------------|
A|--------------------------------------------------------------------------|
E|--------------------------------------------------------------------------|

e|-0------------0-----0------------0-----0------------0------------------0--|
B|----1------3-----3-----3------1-----1-----1------0-----3--0---------1-----|
G|--------1------------------2------------------1--------------1---2--------|
D|--------------------------------------------------------------------------|
A|--------------------------------------------------------------------------|
E|--------------------------------------------------------------------------|

e|----0------------0-----0------------0--------------------------|----------|
B|-1-----1------3-----3-----3------0-----3--0--------------------|-------0--|
G|-----------1------------------1--------------1--2--------------|----1-----|
D|---------------------------------------------------2-----------|----------|
A|------------------------------------------------------3--0-----|----------|
E|------------------------------------------------------------1p0|-0--------|

e|-------------------------------------------------------0-----0------------|
B|----0------------1-----1------------3-----3---------1-----1-----1---------|
G|-1-----1------2-----2-----2------4-----4-----4-------------------------1--|
D|--------------------------------------------------------------------------|
A|--------------------------------------------------------------------------|
E|-----------0------------------0------------------0------------------0-----|

e|---------------------------------------------0-----0---------|
B|-0-----0------------1-----1------------3-----------1---------|
G|----1-----1------2-----2-----2------4-----4-----1--2---------|
D|---------------------------------------------------2--3--2--0|
A|---------------------------------------------------0---------|
E|--------------0------------------0---------------------------|

e|-------3-----0------------------0------------------1------------0---------|
B|--------------------------1------------------3------------------------1---|
G|----0-----0-----0------0-----0-----0------0-----0-----0------0-----0-----0|
D|--------------------------------------------------------------------------|
A|-3------------------3------------------2------------------3---------------|
E|--------------------------------------------------------------------------|

e|-------3-----0------------------0------------1------------0|--------------|
B|--------------------------1------------------------3------1|-------3-----0|
G|----0-----0-----0------0-----0-----0------0-----0-----0---0|----0-----0---|
D|----------------------------------------------------------2|-3------------|
A|-3------------------3-------------------------------------3|--------------|
E|---------------------------------------3-------------------|--------------|
[ Tab from: http://www.guitartabs.cc/tabs/w/wolfgang_amadeus_mozart/etude_tab.html ]
e|----------0-----------------1-----------------0---------------------------|
B|----------------1-----------------3-----------------1------------3-----0--|
G|-0-----0-----0-----0-----0-----0-----0-----0-----0-----0------0-----0-----|
D|----2-----------------0------------------------------------3--------------|
A|----------------------------------------3---------------------------------|
E|--------------------------------------------------------------------------|

e|----------0-----------------1------------0|-------0-----0------------0----|
B|----------------1-----------------3------1|----1-----1-----1------3-----3-|
G|-0-----0-----0-----0-----0-----0-----0---0|-2------------------1----------|
D|----2------------------------------------2|-------------------------------|
A|-----------------------------------------3|-------------------------------|
E|----------------------3-------------------|-------------------------------|

e|-0------------0-----0------------0------------------0-----0------------0--|
B|----3------1-----1-----1------0-----3--0---------1-----1-----1------3-----|
G|--------2------------------1--------------1---2------------------1--------|
D|--------------------------------------------------------------------------|
A|--------------------------------------------------------------------------|
E|--------------------------------------------------------------------------|

e|----0------------0-----0------------0--------------0------------------0---|
B|-3-----3------1-----1-----1------0-----3--0-----------3--1--0------1-----1|
G|-----------2------------------1--------------1--2---------------2---------|
D|--------------------------------------------------------------------------|
A|--------------------------------------------------------------------------|
E|--------------------------------------------------------------------------|

e|-0------------0-----0------------0-----0------------0------------------0--|
B|----1------3-----3-----3------1-----1-----1------0-----3--0---------1-----|
G|--------1------------------2------------------1--------------1---2--------|
D|--------------------------------------------------------------------------|
A|--------------------------------------------------------------------------|
E|--------------------------------------------------------------------------|

e|----0------------0-----0------------0--------------------------|----------|
B|-1-----1------3-----3-----3------0-----3--0--------------------|-------0--|
G|-----------1------------------1--------------1--2--------------|----1-----|
D|---------------------------------------------------2-----------|----------|
A|------------------------------------------------------3--0-----|----------|
E|------------------------------------------------------------1p0|-0--------|

e|-------------------------------------------------------0-----0------------|
B|----0------------1-----1------------3-----3---------1-----1-----1---------|
G|-1-----1------2-----2-----2------4-----4-----4-------------------------1--|
D|--------------------------------------------------------------------------|
A|--------------------------------------------------------------------------|
E|-----------0------------------0------------------0------------------0-----|

e|---------------------------------------------0-----0---------|
B|-0-----0------------1-----1------------3-----------1---------|
G|----1-----1------2-----2-----2------4-----4-----1--2---------|
D|---------------------------------------------------2--3--2--0|
A|---------------------------------------------------0---------|
E|--------------0------------------0---------------------------|

e|-------3-----0------------------0------------------1------------0---------|
B|--------------------------1------------------3------------------------1---|
G|----0-----0-----0------0-----0-----0------0-----0-----0------0-----0-----0|
D|--------------------------------------------------------------------------|
A|-3------------------3------------------2------------------3---------------|
E|--------------------------------------------------------------------------|

e|-------3-----0------------------0------------1------------0|--------------|
B|--------------------------1------------------------3------1|-------3-----0|
G|----0-----0-----0------0-----0-----0------0-----0-----0---0|----0-----0---|
D|----------------------------------------------------------2|-3------------|
A|-3------------------3-------------------------------------3|--------------|
E|---------------------------------------3-------------------|--------------|

e|----------0-----------------1-----------------0---------------------------|
B|----------------1-----------------3-----------------1------------3-----0--|
G|-0-----0-----0-----0-----0-----0-----0-----0-----0-----0------0-----0-----|
D|----2-----------------0------------------------------------3--------------|
A|----------------------------------------3---------------------------------|
E|--------------------------------------------------------------------------|

e|----------0-----------------1------------0|
B|----------------1-----------------3------1|
G|-0-----0-----0-----0-----0-----0-----0---0|
D|----2------------------------------------2|
A|-----------------------------------------3|
E|----------------------3-------------------|

well ok thats it. this was actually tabbed by me ,munit, but it would not let
me login to tab it, but that doesnt matter. the song is correct, but i am not
sure what key it is in. if you do please email me at myoung_2009@yahoo.com.
thank you very much and remember alternate pick.
 
| /  slide up
| \  slide down
| h  hammer-on
| p  pull-off
| ~  vibrato
| +  harmonic
| x  Mute note
===============================================================================
Comments