Wolfgang - Idlip Chords & Tabs

 

Idlip Chords & Tabs

Wolfgang Chords & Tabs

Version: 1 Type: Tab 0 ratings
1 star 2 stars 3 stars 4 stars 5 stars
comments

Idlip Tab

song:Idlip
album:Black mantra
artist:wolfgang
tab by:leander m.

intro:
Eb|--------------------------|
Bb|------5-6----------5-6----|
Gb|--7-7-----7------5-----7--|
Db|--7---------7-9--7-----7--|
Ab|--------------------------|
Eb|--------------------------|
[ Tab from: http://www.guitartabs.cc/tabs/w/wolfgang/idlip_tab.html ]
stanza:
Eb|--------------------------------------|
Bb|------5-6--------------5-6------------|
Gb|--7-7-----7------4-5-5-----7----------|
Db|--7-------7----7---7-------7---7---7--|
Ab|--5-------5--5-----5-------5-0---5----|
Eb|--------------------------------------|

chorus:
Eb|--7-7-7-7-5-8h10p8--|
Bb|--8---8-8-6---------|
Gb|--7---7-9-7---------|
Db|--9---9-7-5---------|
Ab|--7---7-------------|
Eb|--------------------|

tab by:leander m.
        the end
       coR@_T!r@
Comments