Wolfgang - Darkness Fell Chords & Tabs

 

Darkness Fell Chords & Tabs

Wolfgang Chords & Tabs

Version: 1 Type: Tab 0 ratings
1 star 2 stars 3 stars 4 stars 5 stars
comments

Darkness Fell Tab

   
                    "DARKNESS FELL" by wolfgang
                    transcribed by freongang
                    visit me at: freongang_81@yahoo.com     
                          freongang_08@yahoo.com                  

intro:
e|--^-------------------------5----------|
B|-7-9-7---7-7-----9-7------5---5--------|
G|-7-9-7---7-7-7-7-------6---------------|
D|-------9-----9-9-----9-7---------7-----|
A|---------------------------------------|
E|---------------------------------------|

e|------------------------|
B|----------5-3-----------|
G|-5-----3--5-3-5---------|
D|-5-3-5--------5---------|
A|-3----------------------|
E|------------------------|

 and so she woke up.... D  A  G  A  G
e|---------------------------------------------------|
B|---------------------------------------------------|
G|---------------------------------------------------|
D|---------------------------------------------------|
A|---------------------------------------------------|
E|---------------------------------------------------|

 they rode across the land...
e|--------------------------------|
B|--------------------------------|
G|--------------------------------|
D|-5-5-5--3-3-3-3-3-3---5-5-5-----|
A|-5-5-5--3-3-3-3-3-3---5-5-5-----|
E|-3-3-3--1-1-1-1-1-1---3-3-3-----|


 solo             
e|---^----10-12-12b-12b-12b-12b-12b-12b---------------|
B|-10-12---------------------------------10-12-12-----|
G|----------------------------------------------------|
D|----------------------------------------------------|
A|----------------------------------------------------|
E|----------------------------------------------------|

e|-------------------------------------------------------------|
B|-10-8-7-----------7----7b-7b-7b-10-8-7---8-7-----------------|
G|--------10-8-7--9----------------------9-----9-7---7-9b-9b-7-|
D|-------------------------------------------------9-----------|
A|-------------------------------------------------------------|
E|-------------------------------------------------------------|
[ Tab from: http://www.guitartabs.cc/tabs/w/wolfgang/darkness_fell_tab.html ]
e|----------------7-------------
B|-----7---7--------------------|
G|-7-9-7-9-7-7-9----9b-9b-------|
D|-7-9---9----------------------|
A|------------------------------|
E|------------------------------|

e|------------------------------------------------------------|
B|-------8-9-10-8-7-------------------------------------------|
G|-9-7-9------------8-7---------------------------------------|
D|----------------------8-7-----------------7-7-7----7-9-10---|
A|--------------------------9-7------7-8-10-------10----------|
E|------------------------------8-10--------------------------|

e|--------------------------10b-10b-10b-----|
B|-------------10-8-7---7-8-----------------|
G|-7-9-7---7-9--------9---------------------|
D|-------9----------------------------------|
A|------------------------------------------|
E|------------------------------------------|

e|----------------------7----------------8-10-8-7-8-7---|
B|---7-8--7-8-7--7-8-10---10-8---7----------------------|
G|-----------------------------9---9---7----------------|
D|-9---------------------------------9------------------|
A|------------------------------------------------------|
E|------------------------------------------------------|

e|---------------------8-8-7---|
B|-10-8-7-----------10---------|
G|--------9-7-----9------------|
D|-------------10--------------|
A|-----------------------------|
E|-----------------------------|

e|-----------------------10-9-8-----|
B|-8---8-10-8-10---8---8------------|
G|---9---------------9--------------|
D|----------------------------------|
A|----------------------------------|
E|----------------------------------|

e|-------------15b-15b-15b-15b------|
B|-10---10--------------------------|
G|----9-----------------------------|
D|----------------------------------|
A|----------------------------------|
E|----------------------------------|


yan... kahit disband na ang wolfgang, buhayin natin sila sa paggawa ng mga tab nila.....
tribute ko to para kay manuel legarda...
putang inang kamay yan, ang galing mo talaga...... di ko alam kung san mo nakukuha yng
mga amazing riffs mo!!! tnx
Comments