Wolfgang - Bassarabs Walk Chords & Tabs

 

Bassarabs Walk Chords & Tabs

Wolfgang Chords & Tabs

Version: 1 Type: Tab 0 ratings
1 star 2 stars 3 stars 4 stars 5 stars
comments

Bassarabs Walk Tab

   
                       "BASSARABS WALK" BY WOLFGANG
                        transcribed by: freongang
                    visit me at: freongang_81@yahoo.com 
                         freongang_08@yahoo.com

                      "FOR WOLFGANG FANS USE ONLY"

 intro:
e|----------  -5---3-2-  -7-8--4-5---------|
B|------7-6-  ---5-----  -----------6-5----|
G|----7-----  ---------  ------------------|
D|--5-------  ---------  ------------------|
A|----------  ---------  ------------------|
E|----------  ---------  ------------------|

e|----------  -5---3-2-  -5-6----4---------|
B|------7-6-  ---5-----  ------5-----------|
G|----7-----  ---------  ------------------|
D|--5-------  ---------  ------------------|
A|----------  ---------  ------------------|
E|----------  ---------  ------------------|

 so awake...(guitar riffs) X4
e|-----------------------8--9b-----|
B|-------6b--6---------------------|
G|-------7b--7--------7------------|
D|---------------------------------|
A|---------------------------------|
E|--5-0---------5-0----------------|

 so awake...(bass riffs)X4 
e|---------------------------------|
B|---------------------------------|
G|---------------------------------|
D|---------------------------------|
A|-----7b------7b---5-0--1-0-------|
E|-5-0-----5-0----------------5-0--|

 then proceed here(bass riffs)X4
e|----------------------------------|
B|----------------------------------|
G|----------------------------------|
D|----------------------------------|
A|-----------------1-1-1-1-4-4-4-4--|
E|-0-0-0-0-3-3-3-3------------------|

 guitar riffs
e|------------------------------------14-13---|
B|-12b-12b--15b-15b-15b-15b------19b----------|
G|---------------------------14---------------|
D|--------------------------------------------|
A|--------------------------------------------|
E|--------------------------------------------|
 
 then proceed here
e|------------------------------------------------------------------|
B|------------------------------------------------------------------|
G|------------------------------------------------------------------|
D|-3-3-3-3/6-6-6-6-5-5-5-5-4-4-4-4-3-3-3-3/9-9-9-9-8-8-8-8-7-7-7-7--|
A|------------------------------------------------------------------|
E|------------------------------------------------------------------|

e|------------------------------------------------------------------|
B|------------------------------------------------------------------|
G|-3-3-3-3/6-6-6-6-5-5-5-5-8-8-8-8-9-9-9-9-8-8-8-8-6-6-6-6-5-5-5-5--|
D|------------------------------------------------------------------|
A|------------------------------------------------------------------|
E|------------------------------------------------------------------|

 solo:
e|-15-16-15-16-15-14-15-14-15-16-15-16-15-14-15-14-15-16-15-16-15---|
B|------------------------------------------------------------------|
G|------------------------------------------------------------------|
D|------------------------------------------------------------------|
A|------------------------------------------------------------------|
E|------------------------------------------------------------------|
[ Tab from: http://www.guitartabs.cc/tabs/w/wolfgang/bassarabs_walk_tab.html ]
e|-14-15-14-15-16-14-15-14-15-16-15-16-15---------------------------|
B|-----------------------------------------17b-17b-17b-17b----------|
G|------------------------------------------------------------------|
D|------------------------------------------------------------------|
A|------------------------------------------------------------------|
E|------------------------------------------------------------------|

e|------------------------------------------------------------------|
B|-18-16-15-16-15-17-15-----------------18-16-15-16-15-17-15--------|
G|----------------------17b-17b-17b-17b-----------------------------|
D|------------------------------------------------------------------|
A|------------------------------------------------------------------|
E|------------------------------------------------------------------|

e|-------------------------------------|
B|-15b-15b-17-15-20b-20b-19b-20b-12/19-|
G|-------------------------------------|
D|-------------------------------------|
A|-------------------------------------|
E|-------------------------------------|

 after solo:              X4
e|-----------  --------------------------|
B|-----------  --------------------------|
G|-----------  --------------------------|
D|-----------  --3-5-3-1-4b-3------------|
A|-3-5-3-1-3-  ----------------3-5-3-1-3-|
E|-----------  --------------------------|

               X2
e|----------7------------6-----------7-----------6--|
B|----------7------------6-----------7-----------6--|
G|----------7------------6-----------7-----------6--|
D|----------7------------6-----------7-----------6--|
A|-3-5-3-1--7---3-5-3-1--6--3-5-3-1--7--3-5-3-1--6--|
E|--------------------------------------------------|

 my little children...  X4
e|----------------------------------|
B|----------------------------------|
G|----------7-7-7-6-----------------|
D|--7-7-7-7-5-5-5-4-7-7-7-7-8-------|
A|--5-5-5-5---------5-5-5-5-6-------|
E|----------------------------------|

 live on live on... X4
e|----------------------------------|
B|----------------------------------|
G|----------------------------------|
D|--5-7-5-7--11-10-7-9--------------|
A|--3-5-3-5--9--8--5-7--------------|
E|----------------------------------|

 inside of me... X4
e|----------------------------------|
B|----------------------------------|
G|----------7-7-7-6-----------------|
D|--7-7-7-7-5-5-5-4-7-7-7-7-8-------|
A|--5-5-5-5---------5-5-5-5-6-------|
E|----------------------------------|

 guitar riffs
e|------------------------------------14-13---|
B|-12b-12b--15b-15b-15b-15b------19b----------|
G|---------------------------14---------------|
D|--------------------------------------------|
A|--------------------------------------------|
E|--------------------------------------------|

 final riffs
e|------------------------------------------------------------------|
B|------------------------------------------------------------------|
G|------------------------------------------------------------------|
D|-3-3-3-3/6-6-6-6-5-5-5-5-4-4-4-4-3-3-3-3/9-9-9-9-8-8-8-8-7-7-7-7--|
A|------------------------------------------------------------------|
E|------------------------------------------------------------------|

e|----------------------------------------------------------------------4-3-|
B|-----------------------------------------------------------------4-3------|
G|-3-3-3-3/6-6-6-6-5-5-5-5-8-8-8-8-9-9-9-9-8-8-8-8-6-6-6-6-5-5-5-5-----5----|
D|--------------------------------------------------------------------------|
A|--------------------------------------------------------------------------|
E|--------------------------------------------------------------------------|

                         "FOR WOLFGANG FANS USE ONLY"
Comments