Wolfgang - As Oceans Chords & Tabs

 

As Oceans Chords & Tabs

Wolfgang Chords & Tabs

Version: 2 Type: Tab 0 ratings
1 star 2 stars 3 stars 4 stars 5 stars
comments

As Oceans Tab

   
-------------------------------------------------------------------------------
			     AS OCEANS - WOLFGANG
-------------------------------------------------------------------------------
Tabbed by:toto crespo
Email:grandmastercool8@yahoo.com

Tuning:tune down half step (D#, G#, C#, F#, A#, D#)









             D9                     D                     C                   Dadd2

     E  A  D  G  B  E     E  A  D  G  B  E     E  A  D  G  B  E     E  A  D  G  B  E
     x__x____________     x__x____________     x__x____________     x__x____________    
     :  :  :  :  :  :     :  :  :  :  :  :     :  :  :  :  :  :     :  :  :  :  :  :
     :__:__:__:__:__:     :__:__:__:__:__:     :__:__:__:__:__:     :__:__:__:__:__:
     :  :  :  :  :  :   V :  :  :  :  :  :   V :  :  :  :  :  :   V :  :  :  :  :  :
     :__:__:__O__:__:     :__:__:__:__:__O     :__:__O__O__O__:     :__:__:__:__:__:
 III :  :  :  :  :  :     :  :  :  :  :  :     :  :  :  :  :  :     :  :  :  :  :  :
     :__:__:__:__O__:     :__:__:__:__:__:     :__:__:__:__:__:     :__:__:__:__:__:
     :  :  :  :  :  :  VI :  :  :  :  :  :  VI :  :  :  :  :  :  VI :  :  :  :  :  :
     :__:__:__:__:__:     :__:__:__O__O__:     :__:__:__:__:__:     :__:__O__O__O__:
     :  :  :  :  :  :     :  :  :  :  :  :     :  :  :  :  :  :     :  :  :  :  :  :
   V :__:__:__:__:__:     :__:__:__:__:__:     :__:__:__:__:__:     :__:__:__:__:__:







                                                 Hey! to all WOLFGANG fanatics out 
                                                 therehere, I made this for you. 
                                                 This might not be hundred percent 
                                                 correct but i made this very close 
                                                 to the one you hear on the record 
            G5                      F5           made by them. Yung solo (adlib) 
                                                 since its not really perfect din    
      E  A  D  G  B  E        E  A  D  G  B  E   naman,pwede mong gawin, pwede mo   
      x______________x        x______________x   ring hindi gawin.You can create ur         
      :  :  :  :  :  :        :  :  :  :  :  :   own. especially when ur really    
   V  :__o__o__:__:__:    III :__O__O__:__:__:   good.HI to my two beautiful daught-    
      :  :  :  :  :  :        :  :  :  :  :  :   ers Solita and Sharon.Actually    
      :__:__:__:__:__:        :__:__:__:__:__:   they're twins.This is for you. You  
      :  :  :  :  :  :        :  :  :  :  :  :   will always be my inspiration. Sa    
  VII :__:__:__O__:__:      V :__:__:__O__:__:   lahat ng begining bands,ung gus-   
      :  :  :  :  :  :        :  :  :  :  :  :   tong matuto at gumaling, paturo  
      :__:__:__:__O__:        :__:__:__:__O__:   kayo sa akin. Libre lang!Sa lahat 
      :  :  :  :  :  :        :  :  :  :  :  :   ng mayayabang para sa inyo rin ito.  
      :__:__:__:__:__:        :__:__:__:__:__:   Sabihin nyo kayo kumapa.hehehe. If  
                                                 you have any request txt nyo lng 
                                                 ako. Ill transcribe it with honor.  
                                                 yeah...eload lang ang katapat. OK 
                                                 happy playing.. Enjoy!

intro



   D9      D        C      Dadd2       C        Dadd2     C         Dadd2

e|---------------|------------------|------------------|---------------------|
B|---------------|------------------|------------------|---------------------|
G|---------------|------------------|------------------|---------------------|
D|---------------|------------------|------------------|---------------------| 6X
A|---------------|------------------|------------------|---------------------|
E|---------------|------------------|------------------|---------------------|
  close your eyes.....



   G5              F5                 G5                  F5

e|---------------|------------------|------------------|---------------------|
B|---------------|------------------|------------------|---------------------|
G|---------------|------------------|------------------|---------------------|
D|---------------|------------------|------------------|---------------------| 2X
A|---------------|------------------|------------------|---------------------|
E|---------------|------------------|------------------|---------------------|
   and no god.........




[ Tab from: http://www.guitartabs.cc/tabs/w/wolfgang/as_oceans_tab_ver_2.html ]
verse
            palm mute-----]             palm mute------------]
   play 3x-------------------]
  
e|---------------------------|---------------------------------|
B|------------------------.--|---------------------------------|
G|----5/7--------------------|----5/7--------------------------|
D|----5/7---777---xx4x3x2----|----5/7---777------------3-------|  3x
A|----3/5---555-----------.--|----3/5---555--------3-5---5-3---|
E|---------------------------|---------------2h3-3-------------|
  now awake......
  and as i stand... 
  now rest.....


chorus


   G5              F5

e|-------------|---------------|
B|--8----------|----6----------|
G|--7----------|----5----------|
D|--5----------|----3----------|  4X
A|--5----------|----3----------|
E|-------------|---------------|
  and no god.....
  the water    coz men......  



bridge

    A		    A		    A		C     G    A

e|----------------|---------------|---------------------|---------------|
B|--14-14-14--xxx-|-14-14-14--xxx-|-14-14-14---17-17-12-|-14-14-14--xxx-|
G|--14-14-14--xxx-|-14-14-14--xxx-|-14-14-14---17-17-12-|-14-14-14--xxx-|
D|--14-14-14--xxx-|-14-14-14--xxx-|-14-14-14---17-17-12-|-14-14-14--xxx-| 2X
A|--12-12-12--xxx-|-12-12-12--xxx-|-12-12-12---15-15-10-|-12-12-12--xxx-|
E|----------------|---------------|---------------------|---------------|
    and i'm pushin' on............





pre adlib


      D                             C

e|-----------------------------|-----------------------------|
B|----7---8---10---8----7h8p7--|----5---7---5-7h8p7\5h7p5----|
G|----7---7---7----7---------9-|----5---7---5------------7---|
D|--0---0---0----0---0---------|--0---0---0------------------|  4x
A|-----------------------------|-----------------------------|
E|-----------------------------|-----------------------------|



Adlib

      Legend
	
           ^: bend
           ~: vibrato
	   p: pull off
	   B: bend
	   h: hammer on
        /or\: slide
	   x: dead string
	   *: harmonics 




  G                            F                                  G

e|----------------------13^-13^13^--13~13~~- --------------------------------|
B|----13^----13^---13^-------------------------------------------------------|
G|-----------------------------------------12p10-12^-12^---12p10-12p10-------|
D|---------------------------------------------------------------------12----|
A|---------------------------------------------------------------------------|
E|---------------------------------------------------------------------------|

							F

e|---------------------------------------------------------------------------|
B|------------------------------------------------------13h15--15~~~15~~~15~~|
G|---------10-----10*---------10--------10---10h12-12/14---------------------|
D|-x12-12x------12----12-10h12--12-10h12---12--------------------------------|
A|---------------------------------------------------------------------------|
E|---------------------------------------------------------------------------|

	G				    F

e|------17p16p15-17p16p15-17p16p15-17p16p15-15p14p13-15p14p13-15p14p13-------|
B|-15~~~---------------------------------------------------------------------|
G|---------------------------------------------------------------------------|
D|---------------------------------------------------------------------------|
A|---------------------------------------------------------------------------|
E|---------------------------------------------------------------------------|



e|-15p14p13-13p12p10-13p12p10-13p12p12---------------------------------------|
B|-------------------------------------13p12p10-13p12p10-13p12p10------------|
G|----------------------------------------------------------------12p11p10---|
D|---------------------------------------------------------------------------|
A|---------------------------------------------------------------------------|
E|---------------------------------------------------------------------------|

	      G

e|---------------------------------------------------------------------------|
B|------------------------------------------------------------------------13-|
G|--12p10--------------------------------------------------12--12h14p12h14---|
D|--------12~~-----------------------------12--12h14--12h14--14--------------|
A|-----------------10--10h12p10h12/14p12h14--14------------------------------|
E|------------10h12--12------------------------------------------------------|

			F

e|---------------13--13h15p13\10h13p10---------------------------------------|
B|---13h15p13h15---15-----------------13p11h13p11----------------------------|
G|-14--------------------------------------------12-10h12p10-----------------|
D|----------------------------------------------------------12-10h12p10------|
A|---------------------------------------------------------------------12----|
E|---------------------------------------------------------------------------|



e|-------------------------------|
B|-------------------------------|
G|-------------------------------|
D|-------------------------------|
A|--12-10h12p10\8-8h10p8---------|
E|----------------------10p8h10--|



coda


e|--------------------|
B|---7-7----5--4--5-5-|
G|---7-7----5--4--5-5-|outro is played with this (D9, D, C, Dadd2) with dist.
D|---5-5----3--2--3-3-|       just like the intro
A|--------------------|
E|--------------------|
   as the oceans.....

| 
===============================================================================
Comments