Wolfgang - Anino Chords & Tabs

 

Anino Chords & Tabs

Wolfgang Chords & Tabs

Version: 2 Type: Tab 0 ratings
1 star 2 stars 3 stars 4 stars 5 stars
comments

Anino Tab

   
hey.. sa mga katropa ko jan na sila eric,randy,tholits,paeng,at yung cellpam
enterprise.eto para sa inyo to tinab ko at sa mga KAtarabaho ko jan sa E-Copy


                             TITLE; ANINO
                             ARTIST;WOLFGANG
                             ALBUM;ACPUSTICA

(intro:)

E|-------5------|--------------------|
B|----------5---|-----7-7S8----------|
G|--------------|-----------7-----5--|
D|-----7--------|--4-------------5---|
A|---0----------|---------------5----|
E|--------------|--------------------|


E|-------5-----|---------------------|
B|----------5--|------7-7S8-------7--|
G|-------------|------------7----5---|
D|-----7-------|---4------------7----|
A|---0---------|---------------------|
E|-------------|---------------------|


E|-------5-----|--------------------------------------------------|
B|----------5--|------7-7S8-------5--5S8-7----15h13h15h13-10------|
G|-------------|------------7----5--------------------------------|
D|-----7-------|---4------------0---------------------------------|
A|---0---------|--------------------------------------------------|
E|-------------|--------------------------------------------------|


E|-------5-----|--------------------------|
B|----------5--|------7-7s8-----8p7p5-----|
G|-------------|------------7---------7-5-|
D|-----7-------|---4----------------------|
A|---0---------|--------------------------|
E|-------------|--------------------------|

(INTRO SONG)

Lumpong naglalakad katabi nya'y haring nakahubad
binging akikinig sa iyak ng pipi anong tinig

alisin ang yong maskara at idilat ang mga mata
ang isipang tangan ay buksan sa walang kabuluhan


CHORUS: Chrods D7 Dm D7 Dm    (tapos yung chord sa dulo) Am

Ligtas nyo ako sa sarili kong anino, o aking anino
daan ay hanapin palabas ng salamin,kay dami daming hugis ng salamin.


E|----------|12p10p8----8----|--------------------------|-------------|
B|-------8--|--------10---10-|--9p8p7-----7h8-10-12--15-|---8-6p5-----|
G|---7s9---9|----------------|--------9p7---------------|---------7-5-|
D|----------|----------------|--------------------------|-------------|
A|----------|----------------|--------------------------|-------------|
E|----------|----------------|--------------------------|-------------|


E|------------------------------|
B|------------------------------|
G|-----7b-5-------------7-5-7s9-|
D|---------7p5------5-----------|
A|---0----------5h7-------------|
E|------------------------------|

(gITAR II DO THIS)AFTER YUNG FIRST ROUND


e|-------------------------------|
B|--7h8s10-10h12s15--15h17s20----|
g|-------------------------------|
D|-------------------------------|
A|-------------------------------|
E|-------------------------------|

[ Tab from: http://www.guitartabs.cc/tabs/w/wolfgang/anino_tab_ver_2.html ]
NAKATITIG NA BULAG SA MGA HALIGI NA BUWAG BALIW NA SUMASAYAW SA LIWANAG  SYAY IKAW


atg diwa ko'y litong litOito'y balat kayo ang nakikitay kabaligtaran hindi ang kinagisnan


REPEAT CHORUS: then add this line

tangay sa agos ng mundong puro abo ito'y mundong ginto
bato ay abuitn at basagin ang salamin

USE THIS CHORDS IN PROCEEDING TO THE NEXT LYRICS C Bb-F-G

SRUM THIS PART TIMINGAN NYO NA LANG

C           C,Bb,F,G,C   C,Bb,F
o sana,sana

C                 Bb, F, G, C,
kung alam ko lang kung papano

C               C, F, G,
kung alam ko lang

C                  Bb, F, G,
kung alam ko lang kung papano

C               C, F, G,
kung alam ko lang

C                  Bb, F, G,
kung alam ko lang kung papano

C                Bb
kung alam ko.. lang...


(Adlib):
E|----------------------------------------------------------15-12------------|
B|---------------------------------------15-15-----------15-------17-15-12---|
G|--15P14-12----12h14-12--15b------12-14-------14-12-14b---------------------|
D|-----------14---------------12h14------------------------------------------|
A|---------------------------------------------------------------------------|
E|---------------------------------------------------------------------------|


E|--------------------------------------------------------------------------|
B|----------------------------------------------7---------7h9s10s15---------|
G|-15b-12-14-14s15-12---12--9-12--------7---7h9---b9--7h9-------------------|
D|--------------------14------------7h9---9---------------------------------|
A|--------------------------------------------------------------------------|
E|--------------------------------------------------------------------------|


E|------9----------------10h12----15-12-------------------------------|
B|-9h11--11--------------------12b------15p14p12----------------------|
G|-----------14h15-15-15--------------------------14b-12---15b--------|
D|-------------------------------------------------------14-----------|
A|--------------------------------------------------------------------|
E|--------------------------------------------------------------------|

srum this part

E|---7---5---0--0--0--0--0--5-|
B|---7---5---8--8--8--5--0--5-|
G|---9---5---0--0--0--0--5--5-|
D|---9---7---5--5--5--2--5--7-|
A|---7---7---------------0--7-|
E|-------5------------------5-|


tapos repeat ulit yung chorus bahala na kayo mag arrange nung ibang mali nagmamadali 
ako rate nyona lan gtg an ako ok
aalis kasi ako ngayon thanks sa lahat
Comments