Wolf Parade - What Did My Lover Say It Always Had To Go This Way Chords & Tabs

 

What Did My Lover Say It Always Had To Go This Way Chords & Tabs

Wolf Parade Chords & Tabs

Version: 2 Type: Tab 0 ratings
1 star 2 stars 3 stars 4 stars 5 stars
comments

What Did My Lover Say It Always Had To Go This Way Tab

   
-----------------------------------------------------------------
     What Did My Lover Say - Wolf Parade
-----------------------------------------------------------------
Tabbed by: Tyler C.
Email: tylercc@live.ca

Tuning: Drop D

Intro and Verse 1 (Muted in Verse) - Guitar 1
e|----------------------------------------|
b|----------------------------------------|
g|---------------14-------14-12-----------|
d|----2---10-14-----2---16-14--10-10-9-7--|
a|----------------------------------------|
e|--2---------------2---------------------|

Intro - Guitar 2
e|---12b~-------12b~-----------------------------------------|
b|----------------------------5b~-----------5b~--------------|
g|-----------------------------------------------------------|
d|-----------------------------------------------------------|
a|-----------------------------------------------------------|
e|-----------------------------------------------------------|




Break - Guitar 1
e|---------------------------------------------------------------|
b|--15-12----12-15-12--15-12-------------------------------------|
g|----------14--------------------14-12-19-17--16-14-16-14-12-9--|
d|---------------------------------------------------------------|
a|---------------------------------------------------------------|
e|---------------------------------------------------------------|

Break - Guitar 2
e|-----------------------------------12h15p12-12-12h15p12-------------------------|
b|--12h15p12-----------12-15-------------------------------------------00-0-0-0---|
g|--------------14-12-14--------------------------------------14-12-9--99-111111--|
d|--------------------------------------------------------------------------------|
a|--------------------------------------------------------------------------------|
e|--------------------------------------------------------------------------------|




Verse 2 - Guitar 1
e|----------------------------------------------|
b|----------------------------------------------|
g|--121212--9-9-9---121212-111111--9-9-129-777--|
d|--141414-101010-141414-121212-10101010999-----|
a|----------------------------------------------|
e|----------------------------------------------|

Then repeat intro riff once
[ Tab from: http://www.guitartabs.cc/tabs/w/wolf_parade/what_did_my_lover_say_it_always_had_to_go_this_way_tab_ver_2.html ]
PreChorus - Guitar 1
e|------------------------------------------------------------------------------------|
b|------------------------------------------------------------------------------------|
g|------------------------------------------------------------------------------------|
d|--------------------------------------------------1010101010101010101010101010-9-7--|
a|--------------33333333------------55555555------------------------------------------|
e|--22222222------------22222222------------------------------------------------------|




Chorus - Guitar 1
e|-----------------------|
b|-----------------------|
g|-----------------------|
d|-----------------------|
a|--7~-3~-7~-5~-3~-3333--|
e|--9~-5~-9~-7~-5~-------|

Chorus - Guitar 2 (Its so messy its hard to make out but something like this)
e|------------------------------|
b|------------------------------|
g|--7-9-7-9-7-9-7-9-4~--121212--|
d|--9-9-9-9-9-9-9-9-5~--141414--|
a|------------------------------|
e|------------------------------|




Solo (It’s similar to Guitar 2 break but around with the scale.  It ends on this)
e|-------------------------------------|
b|---------15-------12-------10--------|
g|--16-16---14-14---12-12---9-9p7-7h9--|
d|-------------------------------------|
a|-------------------------------------|
e|-------------------------------------|



Verse 3 - Guitar 1
e|------------|
b|------------|
g|--------10--|
d|-----9------|
a|--12--------|
e|------------|

Go to Verse 2 again




Bridge - Guitar 1
e|-----------------|
b|-----------------|
g|-----------------|
d|-----------------|
a|--22233-5\-------|
e|-------------0~--|

e|-------------0~--|
b|-------------3~--|
g|-------------2~--|
d|-------------0~--|
a|--22233-5-0~-----|
e|-------------0~--|

e|--------------|
b|--------------|
g|--------------|
d|--------------|
a|--22233-5-----|
e|--------------|

Bridge - Guitar 2
e|---------------0~---|
b|---------------0~---|
g|--77799-11-11~------|
d|--99999-12-12~------|
a|---------------0~---|
e|---------------0~---|

Repeat Break
Repeat Verse 2
Repeat Solo

End with this
e|-------------------------------------|
b|---------15-------12-------10--------|
g|--16-16---14-14---12-12---9-9p7-7h9--|
d|-------------------------------------|
a|-------------------------------------|
e|-------------------------------------|

| /  slide up
| \  slide down
| h  hammer-on
| p  pull-off
| ~  vibrato
| +  harmonic
| x  Mute note
| b  Bend note
Comments