Wolf Parade - Modern World Chords & Tabs

 

Modern World Chords & Tabs

Wolf Parade Chords & Tabs

Version: 3 Type: Tab 0 ratings
1 star 2 stars 3 stars 4 stars 5 stars
comments

Modern World Tab

   
Modern World (Apologies To The Queen Mary)

Tune down a whole step(DGCFAd)to match album version

great song, awesome band, my first tab so please rate!


Strumming Pattern (intro/verses, breaks during keyboard section at 0:39)

       Em       Am
d|-----0--------0----------|
A|-----0--------1----------|
F|-----0--------2----------|
C|-----2--------2----------|
G|-----2--------0----------|
D|-----0--------0----------|


Keyboard Fill (just the basic note structure, I usually mess around with the rhythm, 
good with slides also)
[ Tab from: http://www.guitartabs.cc/tabs/w/wolf_parade/modern_world_tab_ver_3.html ]
d|---7--7--5--5--3--3--3--3----7--7--5--5--3--3--3--3---|
A|------------------------------------------------------|
F|------------------------------------------------------|
C|------------------------------------------------------|
G|------------------------------------------------------|
D|------------------------------------------------------|

d|---3--3--3--3--2--2--2--2p0---------------------------|
A|------------------------------------------------------|
F|------------------------------------------------------|
C|------------------------------------------------------|
G|------------------------------------------------------|
D|------------------------------------------------------|


Solo Riff (1:23 to end)

d|------------------------------0-3---------------------|
A|--(0)---------0---------0---1-----0-------------------|
F|------0---0-2---0-------------------------------------|
C|------------------2-----------------------------------|
G|------------------------------------------------------|
D|------------------------------------------------------|
Comments