Wolf Parade - Modern World Chords & Tabs

 

Modern World Chords & Tabs

Wolf Parade Chords & Tabs

Version: 1 Type: Tab 0 ratings
1 star 2 stars 3 stars 4 stars 5 stars
comments

Modern World Tab

   
Modern World Tab by Wolf Parade
Tabbed by clarkeboss

Modern World
Acoustic
Tune down a whole step (DGCFAd)

Intro and verse guitar part. This is played throughout first half of the song:
      EM        ?
d|-------------------------| 
A|-----0--------0----------| 
F|-----0--------5----------| 
C|-----2--------7----------| 
G|-----2--------7----------|
D|-----0--------5----------|
                Thumb
[ Tab from: http://www.guitartabs.cc/tabs/w/wolf_parade/modern_world_tab.html ]
Half-time keyboard part after the first verse.
d|------19--19----17--17----17--17---15--15-------------| 
A|------------------------------------------------------| x2
F|------16--16----14--14----14--14---12--12-------------|
C|------------------------------------------------------|
G|------------------------------------------------------|
D|------------------------------------------------------|

d|------15--15--15--15--14-| 
A|-------------------------|
F|------12--12--12--12--11-|
C|-------------------------|
G|-------------------------|
D|-------------------------|

Then you continue with the two chords used in the intro and verse.
After the second verse we get into a great little acoustic rift thats played
throughout the rest of the song.

d|---------------------------------| 
A|--------------------0------8p0---| 
F|-------------------------9-------| 
C|----5--------9---------9---------| 
G|----------10---10----------------|
D|--3----/7---------0--------------|

Let me know if it needs any corrections.
clarkeboss@hotmail.com
Comments