Wolf Parade - Its A Curse Chords & Tabs

 

Its A Curse Chords & Tabs

Wolf Parade Chords & Tabs

Version: 1 Type: Tab 0 ratings
1 star 2 stars 3 stars 4 stars 5 stars
comments

Its A Curse Tab

Wolf Parade - It's A Curse
From: Apologies to the Queen Mary
Tabbed by: Dave
E-mail: ironic_clown@hotmail.com

Feel free to e-mail with questions/comments!

Intro:

e|---------------------------|
B|---------------------------|
G|-------5------------5------|
D|----------7~-----------7~--|
A|---------------------------|
E|--5-5----------5-5---------|
[ Tab from: http://www.guitartabs.cc/tabs/w/wolf_parade/its_a_curse_tab.html ]
e|--------------------------------------------------------|
B|--------------------------------------------------------|
G|------5-5~------------------7--5-5~---------------------|
D|-----------7-7~-7-5-------7---------7-7~-7-5------------|
A|--------------------8-7-8--------------------8-7-8---5--|
E|--5-5----------------------------------------------8----|

During the verse he just plays this note a lot:

e|-----|
B|-----|
G|--5--|
D|-----|
A|-----|
E|-----|


During the "oh oh oh" part of the second verse:

e|-----------|
B|-----------|
G|-------5~--|
D|-----------|
A|-----------|
E|--5-5------|

This is the ending part, starting at 2:10:

First just hammer this note out a lot:

e|-----|
B|-----|
G|--5--|
D|--7--|
A|-----|
E|-----|

Then at 2:37 start playing this:

e|---------------------------------------|
B|--8-5---5------------------------------|
G|------5---5/7-5-5/9-5---5---5---5-5-5--|
D|------------------------7---7---7-7-7--|
A|---------------------------------------|
E|---------------------------------------|
Comments