Wolf Parade - Ill Believe In Anything Chords & Tabs

 

Ill Believe In Anything Chords & Tabs

Wolf Parade Chords & Tabs

Version: 2 Type: Tab 0 ratings
1 star 2 stars 3 stars 4 stars 5 stars
comments

Ill Believe In Anything Tab

   
Wolf Parade - I'll Believe in Anything
From: Apologies to the Queen Mary
Tabbed by: Dave
E-mail: ironic_clown@hotmail.com

Feel free to e-mail with any questions or comments.

Intro/Verse
e|----------------------------|
B|------10-8--5----5----5-----|
G|--------------7----7----5---|
D|----------------------------|
A|----------------------------|
E|--(8)-----------------------|

The middle, "And I could take away your trips from you and..." part:

e|---------------------------------------------------|
B|---------------------------------------------------|
G|--5-5-5-5-5-5-5-5-5-5-5-5-5-5-5-5-5-5-5-5-5-5-5-5--|
D|--5-5-5-5-5-5-5-5-5-5-5-5-5-5-5-5-5-5-5-5-5-5-5-5--|
A|--3-3-3-3-3-3-5-5-5-5-5-5-7-7-7-7-7-7-8-8-8-8-8-8--|
E|---------------------------------------------------|
[ Tab from: http://www.guitartabs.cc/tabs/w/wolf_parade/ill_believe_in_anything_tab_ver_2.html ]
(This is just one way of playing it, adapted to guitar, the melody is carried by the
and bass guitar, not so much the electric. The bass is playing the note pattern that I
out on the A string: C D E F)

After the "Look at the place far away from here" part:

Bang out the C major chord at the beginning of each bar, and for the part that changes
the progression is Am, E, F, G, then back to C.

Little riff in the "If I could take the fire out from the wire" part

I think it's this...

e|---------------|
B|---------------|
G|--0--2p0-------|
D|----------3-2--|
A|---------------|
E|---------------|

then go back to the C chord.

Ending

Exact same as the original intro verse riff just play each note as an eigth note,
of staggering it like in the intro (as the time signature moves from 3/4 to 4/4).
Comments