Wolf Parade - Fine Young Cannibals Chords & Tabs

 

Fine Young Cannibals Chords & Tabs

Wolf Parade Chords & Tabs

Version: 3 Type: Tab 0 ratings
1 star 2 stars 3 stars 4 stars 5 stars
comments

Fine Young Cannibals Tab

   
-------------------------------------------------------------------------------
                      FINE YOUNG CANNIBALS - Wolf Parade
-------------------------------------------------------------------------------
Tabbed by: baghetti
Email: RTTTMOSMW@gmail.com

Tuning: Standard

Arranged for two guitars. 2nd guitar is guitar arranged for synth. Because of
    the difference between instruments some pitches may sound 1 octave lower
    than written.
Additional parts are shown that can be played optionally by Guitar 2 or by a
    3rd guitar.

Guitar 1 - Slight distortion
Guitar 2 - Clean
Guitar 3 (optional) - Clean

+-----------------------+----------------------------------------------------------
|Intro                  |
|0:00 - 0:33            |
+-----------------------+

   X     X     X     X     X     X     X     X
(Guitar 1)
[Rhy Figure 1]
e|------------------------|------------------------|
B|------------------------|------------------------|
G|------------------------|------------------------|
D|-7--------7--7-----5----|7--------7--7-----5-----|
A|-7--------7--7-----5----|7--------7--7-----5-----|
E|-5--------5--5-----3----|5--------5--5-----3-----|
   p.m.............................................

                                  [End Rhy Figure 1]
e|------------------------|------------------------|
B|------------------------|------------------------|
G|------------------------|------------------------|
D|/10-------10-10----5----|10-------10-10----5-----|
A|/10-------10-10----5----|10-------10-10----5-----|
E|/8--------8--8-----3----|8--------8--8-----3-----|
   ...............................................]


   X     X     X     X     X     X     X     X
(Guitar 1 continues playing Rhy Figure 1 throughout)
(Guitar 2)
e|------------------------|------------------------|---------------|--------------|
B|-13---------------------|------------------------|---------------|--------------|
G|-------14------------12-|------------14----12----|---------------|--------------|
D|------------------------|---------------------14-|---------------|--------------|
A|------------------------|------------------------|---------------|--------------|
E|------------------------|------------------------|---------------|--------------|


    X     X     X     X     X     X     X     X
(Guitar 2)
[Figure A]
e||------------------------|------------------------|
B||------------------------|------------------------|
G||------------------------|------------------------|
D||------------------------|------------------------|
A||-7--------7--7-----5----|7--------7--7-----5-----|
E||-5h8------5--5----------|5h8------5--5-----------|


   X     X     X     X     X     X     X     X
                                       [End Figure A]
e|------------------------|------------------------||
B|------------------------|------------------------||
G|------------------------|------------------------||
D|------------------------|------------------------||
A|-7/3*-----3--3----------|3--------3--3-----------||
E|-------------------3----|------------------3-----||
                                       "In this..."**

* First time through / Second time through
** 2nd time


+-----------------------+
|1st Verse              |
|0:33 - 1:23            |
+-----------------------+


e||-------------------------------------------------||
B||-------------------------------------------------||
G||----(Guitar 1 plays Rhy Figure 1 throughout)-----||
D||----(Guitar 2 plays Figure B)--------------------||
A||-------------------------------------------------||
E||-------------------------------------------------||
"house"
"There's no order"
"There's no loss of love out here"
"If it's over"
"I know I..."

        +---------------------------------------------------------+
        |  [Figure B]                                             |
        |     X     X     X     X     X     X     X     X         |
        |  e|------------------------|------------------------|   |
        |  B|------------------------|------------------------|   |
        |  G|------------------------|------------------------|   |
        |  D|------------------------|------------------------|   |
        |  A|------------------------|------------------------|   |
        |  E|-5--------5--5-----3----|5--------5--5-----3-----|   |
        |                                                         |
        |                                                         |
        |  e|------------------------|------------------------|   |
        |  B|------------------------|------------------------|   |
        |  G|------------------------|------------------------|   |
        |  D|------------------------|------------------------|   |
        |  A|-3--------3--3----------|3--------3--3-----------|   |
        |  E|-------------------3----|------------------3-----|   |
        |                                                         |
        +---------------------------------------------------------+


(Guitar 2)
[Figure C]
e|-12-12-12-12-12-15------|-12-12-12-12-12-15------|
B|-13-13-13-13-13-13------|-13-13-13-13-13-13------|
G|------------------------|------------------------|
D|------------------------|------------------------|
A|------------------------|------------------------|
E|------------------------|------------------------|
"called                                      Out to"

                                      [End Figure C]
e|-12---------------------|------------------------|
B|-------13---------------|------------------------|
G|-------------14----12-14|------------------------|
D|------------------------|------------------------|
A|------------------------|------------------------|
E|------------------------|------------------------|
"you                                   Something is"


e|-12-12-12-12-12-15------|-12-12-12-12-12-15------|
B|-13-13-13-13-13-13------|-13-13-13-13-13-13------|
G|------------------------|------------------------|
D|------------------------|------------------------|
A|------------------------|------------------------|
E|------------------------|------------------------|
"haunting these four walls                 You know"

			
e|-20-----------15----17--|------------------------|
B|------------------------|-17---------------------|
G|------------------------|------------------------|
D|------------------------|------------------------|
A|------------------------|------------------------|
E|------------------------|------------------------|
"it's true"


(Guitar 1)
[Figure D]
e||--------5-----8-----7---|-------5-----8-----7----|
B||--------5-----5-----5---|-------5-----5-----5----|
G||------------------------|------------------------|
D||------------------------|------------------------|
A||------------------------|------------------------|
E||------------------------|------------------------|
(Guitar 2 plays Figure B)

                                       [End Figure D]
e|--------3-----5-----3---|------------------------||
B|--------5-----5-----5---|-------------5-----5----||
G|------------------------|-------------5-----5----||
D|------------------------|------------------------||
A|------------------------|------------------------||
E|------------------------|------------------------||
                                        "I will..."**
** 2nd time



+-----------------------+
|2nd Verse              |
|1:23 - 2:13            |
+-----------------------+

Explanation: Play the first two bars twice, then the second two bars twice --
    Repeat this 4 times with an alternate ending the 4th time).

      X     X     X     X     X     X     X     X
(Guitar 1 plays Rhy Figure 1)
(Guitar 2)
e||||------------------------|------------------------||
B||||------------------------|------------------------||
G||||--9h10p9--------5-\4----|-9h10p9--------5-\4-----||
D||||----------------7-\5----|---------------7-\5-----||
A||||------------------------|------------------------||
E||||------------------------|------------------------||
"Crawl                                    right back to"
"smoldering summer sky                    I'll be there"
"told                                   Of the new fast"
"room to breathe ... think twice         We'll be there"

                            ___________________________   ________________________
                           |First 3 times              | |4th time
                              [Play entire part 4 times]
e||------------------------|------------------------|||| |------------------------|
B||------------------------|------------------------|||| |------------------------|
G||--9h10p9--------7-\5----|-9h10p9--------7-\5-----|||| |------------------------|
D||----------------9-\7----|---------------9-\7-----|||| |------------------------|
A||------------------------|------------------------|||| |------------------------|
E||------------------------|------------------------|||| |------------------------|
"you                                          Under the"
"soon                                         I've been"
"days                                      There's some"
"soon                                                             soo-oon"

                                        [Play 2 times]
e||-------------------------------------------------||
B||-------------------------------------------------||
G||-----------(Guitar 1 plays Figure D)-------------||
D||-----------(Guitar 2 plays Figure B)-------------||
A||-------------------------------------------------||
E||-------------------------------------------------||
                           "Well all that's in the..."***

*** 2nd time through



+-----------------------+
|1st Chorus             |
|2:13 - 2:34            |
|                       |
|2nd Chorus             |
|3:38 - 3:58            |
+-----------------------+

  ________________________________________________...
 |1st and 2nd Chorus
   (Guitar 1)
e||-1----------------------|3-----------------------|
B||-1----------------------|3-----------------------|
G||-2----------------------|4-----------------------|
D||-3----------------------|5-----------------------|
A||-3----------------------|5-----------------------|
E||-1----------------------|3-----------------------|
 ||                                                 |
 ||(Guitar 2)                                       |
 || .  .  .  .  .  .  .  .   .  .  .  .  .  .  .  . |
e||------------------------|------------------------|
B||-13-13-13-13-13-13-13-13|-12-12-12-12-12-12-12-12|
G||-14-14-14-14-14-14-14-14|-12-12-12-12-12-12-12-12|
D||------------------------|------------------------|
A||------------------------|------------------------|
E||------------------------|------------------------|
"mind          Has trickled out               Let me"

   X     X     X     X     X     X     X     X
...________________________________________________
                                                   |
         .           .           .           .
e|-------5-----------5----|------5-----------5----||
B|-------5-----------5----|------5-----------5----||
G|------------------------|-----------------------||
D|------------------------|-----------------------||
A|------------------------|-----------------------||
E|------------------------|-----------------------||
                                                  ||
                                                  ||
e|------------------------|-----------------------||
B|------------------------|-----------------------||
G|------------------------|-----------------------||
D|------------------------|-----------------------||
A|------------------------|-----------------------||
E|-5--------5--5----------|5--------5--5----------||
(2nd Guitar or a 3rd guitar can play optional Fill 1 on 2nd Chorus)
"breathe                     Well all that's in the"

 _________________________________________________
|1st Chorus only

e|-1----------------------|3----------------------|
B|-1----------------------|3----------------------|
G|-2----------------------|4----------------------|
D|-3----------------------|5----------------------|
A|-3----------------------|5----------------------|
E|-1----------------------|3----------------------|
 |                                                |
 |                                                |
e|------------------------|-----------------------|
B|-13---------------------|12---------------------|
G|-14---------------------|12---------------------|
D|------------------------|-----------------------|
A|------------------------|-----------------------|
E|------------------------|-----------------------|
"mind              Then we hold"

--- SKIP TO 3rd Verse ---


 _________________________________________________
|2nd Chorus only
[ Tab from: http://www.guitartabs.cc/tabs/w/wolf_parade/fine_young_cannibals_tab_ver_3.html ]
e|-1----------------------|3----------------------|
B|-1----------------------|3----------------------|
G|-2----------------------|4----------------------|
D|-3----------------------|5----------------------|
A|-3----------------------|5----------------------|
E|-1----------------------|3----------------------|
 |                                                |
 | .  .  .  .  .  .  .  .   .  .  .  .  .  .  .  .|
e|------------------------|-----------------------|
B|-13-13-13-13-13-13-13-13|12-12-12-12-12-12-12-12|
G|-14-14-14-14-14-14-14-14|12-12-12-12-12-12-12-12|
D|------------------------|-----------------------|
A|------------------------|-----------------------|
E|------------------------|-----------------------|
"mind              Then we hold"

--- SKIP TO Bridge ---


        +---------------------------------------------------------+
        |  [Fill 1]                                               |
        |     X     X     X     X     X     X     X     X         |
        |  e|-------------15----17---|------------------------|   |
        |  B|----------------------17|------------------------|   |
        |  G|------------------------|------------------------|   |
        |  D|------------------------|------------------------|   |
        |  A|------------------------|------------------------|   |
        |  E|------------------------|------------------------|   |
        |                                                         |
        +---------------------------------------------------------+



+-----------------------+
|3rd Verse              |
|2:34 - 3:38            |
+-----------------------+

(Guitar 1 plays Rhy Figure 1)
(Guitar 2)
e||||------------------------|------------------------||
B||||------------------------|------------------------||
G||||--9h10p9--------5-\4----|-9h10p9--------5-\4-----||
D||||----------------7-\5----|---------------7-\5-----||
A||||------------------------|------------------------||
E||||------------------------|------------------------||

Guitar 2 or a 3rd guitar can play optional Figure C with variations (as heard on
    recording)

                            ___________________________   ________________________
                           |1st time                   | |2nd time

e||------------------------|------------------------|||| |------------------------|
B||------------------------|------------------------|||| |------------------------|
G||--9h10p9--------7-\5----|-9h10p9--------7-\5-----|||| |------------------------|
D||----------------9-\7----|---------------9-\7-----|||| |------------------------|
A||------------------------|------------------------|||| |------------------------|
E||------------------------|------------------------|||| |------------------------|
                                                                   "My heart is..."

(Guitar 1)
e||------------------------|------------------------|
B||------------------------|------------------------|
G||------------------------|------------------------|
D||------------------------|------------------------|
A||-7--7--7--7--7--7--7--7-|-7--7--7--7--7--7--7--7-|
E||-5--5--5--5--5--5--5--5-|-5--5--5--5--5--5--5--5-|
    p.m. ...........................................
(Guitar 2 plays Figure A)
"clean                          Like a crater of the"
"sea                                     Of cackling"
"true                                        True to"
"consume ourselves ... twice           I'll be there"


                                       [Play 4 times]****
e|------------------------|------------------------||
B|------------------------|------------------------||
G|------------------------|------------------------||
D|------------------------|------------------------||
A|-10-10-10-10-10-10-10-10|-10-10-10-10-10-10-10-10||
E|-8--8--8--8--8--8--8--8-|-8--8--8--8--8--8--8--8-||
   ...............................................]
"moon                                        And the"
"gloom                                   and I'll be"
"you                                          We may"
"soon,                                          sooo"

**** Guitar 2 or a 3rd guitar can play optional Figure C on the 4th time (as heard
    on recording)


(Guitar 1 plays Rhy Figure 1)
(Guitar 2)
    .  .  .  .  .  .  .  .   .  .  .  .  .  .  .  .
e||-12-12-12-12-12-10-10-10|-12-12-12-12-12-10-10-10|
B||-13-13-13-13-13-10-10-10|-13-13-13-13-13-10-10-10|
G||------------------------|------------------------|
D||------------------------|------------------------|
A||------------------------|------------------------|
E||------------------------|------------------------|

                           _________________________      ________________________
                          |1st time                 |    |2nd time
   .  .  .  .  .  .  .      .  .  .  .  .  .  .            .  .  .  .  .  .  .  .
e|-12-12-12-12-12-10-10p8-|-12-12-12-12-12-10-10p8-||   -|-8--8--8--8--8--8--8--8-|
B|-13-13-13-13-13-10-10---|-13-13-13-13-13-10-10---||   -|-8--8--8--8--8--8--8--8-|
G|-12-12-12-12-12---------|-12-12-12-12-12---------||   -|------------------------|
D|------------------------|------------------------||   -|------------------------|
A|------------------------|------------------------||   -|------------------------|
E|------------------------|------------------------||   -|------------------------|
                                                             "All that's in the..."

--- SKIP TO 2nd Chorus ---


+-----------------------+
|Bridge                 |
|3:58 - 4:28            |
+-----------------------+

    X     X     X     X     X     X     X
                            ___________________
                           |First 7 times      |
   (Guitar 1)                     [Play 8 times]
e||-8-----8-----0-----0----|1-----1-----------||
B||-8-----8-----0-----0----|1-----1-----------||
G||-7-----7--0--1-----1--0-|2-----2--0--5--0--||
D||-10----10-0--2-----2--0-|3-----3--0--7--0--||
A||-10----10-0--2-----2--0-|3-----3--0--7--0--||
E||-8-----8--0--0-----0--0-|1-----1--0--5--0--||
 ||                                           ||
 ||(Guitar 2)                                 ||
 || .  .  .  .  .  .  .  .   .  .  .  .  .  . ||
e||------------------------|------------------||
B||-13-13-13-13-12-12-12-12|-10-10-10-10-10-10||
G||-14-14-14-14-9--9--9--9-|-10-10-10-10-10-10||
D||------------------------|------------------||
A||------------------------|------------------||
E||------------------------|------------------||
"Uh oh, oh, there's nothing here"****

**** Singing starts 5th time through

 __________________________________________________
|8th time

e|-1----------------------|3-----------------------|
B|-1----------------------|3-----------------------|
G|-2----------------------|4-----------------------|
D|-3----------------------|5-----------------------|
A|-3----------------------|5-----------------------|
E|-1----------------------|3-----------------------|
 |                                                 |
 |                                                 |
e|------------------------|------------------------|
B|-10---------------------|12----------------------|
G|-10---------------------|12----------------------|
D|------------------------|------------------------|
A|------------------------|------------------------|
E|------------------------|------------------------|
"here                      here"



+-----------------------+
|Outro                  |
|4:28 - end             |
+-----------------------+

    X     X     X     X     X     X     X     X
(Guitar 1)                              [Play 4 times]
e||------------------------|------------------------||
B||------------------------|------------------------||
G||-------14---------------|---12-------------------||
D||-10----------12-14----10|---------10-12----14----||
A||------------------------|------------------------||
E||------------------------|------------------------||
(Guitar 2 plays Figure C)


    X     X     X     X     X     X     X     X
   (Guitar 1)
          .           .           .           .
e||------------------------|------------------------|
B||-------5-----------5----|------5-----------5-----|
G||------------------------|------------------------|
D||------------------------|------------------------|
A||------------------------|------------------------|
E||------------------------|------------------------|
 ||                                                 |
 ||(Guitar 2)                                       |
e||--12-12-12-12-12-15-----|12-12-12-12-15-15-------|
B||--13-13-13-13-13-13-----|13-13-13-13-13-13-------|
G||------------------------|------------------------|
D||------------------------|------------------------|
A||------------------------|------------------------|
E||------------------------|------------------------|

Guitar 2 or a 3rd guitar can play optional Figure C with slight variations
throughout and Figure A (fourth time) (as heard on recording)

                                       [Play 4 times]
e|--------3-----5-----3---|------------------------||
B|--------5-----5-----5---|-------------5--3-----5-||
G|------------------------|-------------5--5-----5-||
D|------------------------|------------------------||
A|------------------------|------------------------||
E|------------------------|------------------------||
 |                                                 ||
 |                                                 ||
e|------------------------|------------------------||
B|------------------------|------------------------||
G|------------------------|------------------------||
D|------------------------|------------------------||
A|------------------------|------------------------||
E|------------------------|------------------------||


    X     X     X     X     X     X     X     X
   (Guitar 1)         .                       .
e||------------------------|------------------------|
B||-------------------5----|------------------5-----|
G||------------------------|------------------------|
D||------------------------|------------------------|
A||-----------6h7----------|----------6h7-----------|
E||------------------------|------------------------|
 ||                                                 |
 ||(Guitar 2)                                       |
e||------------------------|------------------------|
B||------------------------|------------------------|
G||--9h10p9--------5-\4----|-9h10p9--------5-\4-----|
D||----------------7-\5----|---------------7-\5-----|
A||------------------------|------------------------|
E||------------------------|------------------------|



    X     X     X     X     X     X     X     X
                [Play 4 times with slight variations]
e|--------3-----5-----3---|------------------------||
B|--------5-----5-----5---|-------------5-----3----||
G|------------------------|-------------5-----5----||
D|------------------------|------------------------||
A|------------------------|------------------------||
E|------------------------|------------------------||
 |                                                 ||
 |                                                 ||
e|------------------------|------------------------||
B|------------------------|------------------------||
G|--9h10p9--------7-\5----|-9h10p9--------7-\5-----||
D|----------------9-\7----|---------------9-\7-----||
A|------------------------|------------------------||
E|------------------------|------------------------||


    X     X     X     X     X     X     X     X
(Guitar 1)                       [Repeat and fade out]
e||------------------------|------------------------||
B||------------------------|------------------------||
G||-------14---------------|---12-------------------||
D||(10)---------12-14----10|---------10-12----14----||
A||------------------------|------------------------||
E||------------------------|------------------------||
(Guitar 2 plays Figure B or optional Figure C with slight variations)
( ) = Don't play first time


END

-----------------------------------------------------------------------------------

Legend:

X - Denotes the beat
/ - Slide up
\ - Slide down
. - Staccato
h - Hammer-on
p - Pull-off
p.m. - Palm mute

                     [*****]
e||-----             -----||
B||-----             -----||
G||-- <- double bars -> --||
D||---- = REPEAT PART ----||
A||-----             -----||
E||-----             -----||

       ***** Number of times to repeat part listed here. Play part twice if not
             shown.

+--------------------------------------------------------------------------+
| This file is the author's own work and represents their interpretation   |
| of the song. You may only use this file for private study, scholarship,  |
| or research.                                                             |
+--------------------------------------------------------------------------+
Comments