Wizo - Waiting For You Chords & Tabs

 

Waiting For You Chords & Tabs

Wizo Chords & Tabs

Version: 1 Type: Tab 0 ratings
1 star 2 stars 3 stars 4 stars 5 stars
comments

Waiting For You Tab

#----------------------------------PLEASE NOTE--------------------------------#
#This file is the author's own work and represents their interpretation of the#
#song. You may only use this file for private study, scholarship, or research.#
#-----------------------------------------------------------------------------#
#-- File created with Instab - http://www.pconline.com/~smcarey/instab.html --#
#-----------------------------------------------------------------------------#

Author/Artist: Wizo
Title: Waiting for you
Album: Uarghh!!
Transcribed by: M.Röhrl
Email: Gunklbauer@aol.com

This is a really cool song from Wizo´s third Album "Uarghh!!!". Have fun!

------------------------------------------------------------------------------
--------------------6------------------------6--------------------------------
-----5------8---------6---8-------5-----8----6--------------------------------
-------6------8---6---------8-------6-----8--6--------------------------------
---6------6-----4-------6-------6-----6------4--------------------------------
-4----------------------------4-----------------------------------------------
 Intro/Verse                                                                  
[ Tab from: http://www.guitartabs.cc/tabs/w/wizo/waiting_for_you_tab.html ]
------------------------------------------------------------------------------
------------------------------------------------------------------------------
---10---------8\6--/--8-------------------------------------------------------
---10---------8\6--/--8-------------------------------------------------------
---8----------6\4--/--6-------------------------------------------------------
------------------------------------------------------------------------------
 ...to me  oooh     ( End of Verse )                                          

------------------------------------------------------------------------------
------------------------------------------------------------------------------
---------8-----6-----8--------------------------------------------------------
--6------8-----6-----8--------------------------------------------------------
--6------6-----4-----6--------------------------------------------------------
--4---------------------------------------------------------------------------
   Chorus1  What else can i do.....                                           

------------------------------------------------------------------------------
--------------x-x-x-x-x-------------------------------------------------------
-------10-----6-6-6-6-6------------------8-8-8-8/9-9-9-9-9-9-9-9-9------------
-------10-----6-6-6-6-6----x3------------8-8-8-8/9-9-9-9-9-9-9-9-9------------
-------8------4-4-4-4-4------------------6-6-6-6/7-7-7-7-7-7-7-7-7------------
--------------x-x-x-x-x-------------------------------------------------------
 Bridge  Wil she ever come back...    ..home to meeeee!!! Hossa!              

------------------------------------------------------------------------------
------------------------------------------------------------------------------
------------9-----7-----9-----------------------------------------------------
------7-----9-----7-----9-----------------------------------------------------
------7-----7-----5-----7-----------------------------------------------------
------5-----------------------------------------------------------------------
     Chorus 2             ...shanananana Waiting for you....                  

Comments