Wizo - Raum Der Zeit Chords & Tabs

 

Raum Der Zeit Chords & Tabs

Wizo Chords & Tabs

Version: 2 Type: Bass Tab 0 ratings
1 star 2 stars 3 stars 4 stars 5 stars
comments

Raum Der Zeit Bass Tab

Wizo - Uuaarrgh! - Raum der Zeit
tabbed by Pat Lynch (pat_thetic@hotmail.com)

Correction from Carlos Pino's tabbing of Raum der Zeit by Wizo


Intro (1x)

G|----------------------
D|----------------------
A|-----5----------------
E|-------------3--------

      "ich . . bin"


Verse (4x)

G|-----------------------------------------
D|-----------------------------------------
A|-----------33333333---------5555---------
E|--55555555----------1111111------3333----


Chorus (1x)

G|----------------------------------------
D|----------------------------------------
A|----------3-3-3-3-----------------------
E|-1-1-1-1----------3-3-3-3--5-5-5-5------
[ Tab from: http://www.guitartabs.cc/tabs/w/wizo/raum_der_zeit_btab_ver_2.html ]
G|----------------------------------------
D|----------------------------------------
A|----------3-3-3-3--5-5-5-5--7======>----
E|-1-1-1-1--------------------------------


Bridge (1x)

G|-----------------
D|-----------------
A|-5---3---1---0---
E|-----------------


Verse (4x)

Chrous (1x)

Second Bridge (1x)

G|-------------------------------- (2x)            G|--------------- (1x)
D|--------------------------------   => then =>    D|---------------
A|--3----------------5------------                 A|--3------------
E|-------3--3-------------3--3----                 E|-------3--3----


Verse (4x)

Chorus (1x)

Outro

G|-----------------
D|-----------------
A|-5---------------
E|------3--3-------

  "fick dich"
Comments