Wizo - Gute Freunde Chords & Tabs

 

Gute Freunde Chords & Tabs

Wizo Chords & Tabs

Version: 1 Type: Bass Tab 0 ratings
1 star 2 stars 3 stars 4 stars 5 stars
comments

Gute Freunde Bass Tab

   
Gute Freunde – Wizo, 
tabbed by Nikkel Blaase

„Bass-Tab“



Intro:

G-------------------------------------------------------------------------------
D----------------------2--------------4-----------------------------------------
A------4-----------4-----4--------5-----5---------4-----------------------------
E---5-----5-------------------------------------5------5------------------------


Strophe: (2x)

         A                  C#m              D                A
G-------------------------------------------------------------------------------
D----------------------2--------------4-----------------------------------------
A------4-----------4-----4--------5-----5---------4-----------------------------
E---5-----5-------------------------------------5------5------------------------
[ Tab from: http://www.guitartabs.cc/tabs/w/wizo/gute_freunde_btab.html ]
        H#m            F#m               D                    E
G-------------------------------------------------------------------------------
D-----0------------------------------4---------------6--------------------------
A--2-----2-----------0-----------5-----5--------7-----7-------------------------
E------------------2-----2------------------------------------------------------


Bridge:

G----------------------------------------------------
D----------------------------------------------------
A—5-5-5-5-----7-7-7-7--------------------------------
E-------------------------------5-5-5-5-----2-2-2-2--

G--------------------------------------------------
D--------------------------------------------------
A---5-5-5-5-----7-7-7-7-----5-5-5-5-----7-7-7-7----
E--------------------------------------------------

Refrain: (4x)

G-----------------------------------------------------------------------------------------
D-----------------------------------------------------------------------------------------
A-----------------------------7-7-7-7---7-7-7-7---5-5-5-5---5-5-5-5---------------7-7-7-7-
E---5-5-5-5----5-5-5-5----------------------------------------------------5-5-5-5---------
Comments