Wizard - Iron War Chords & Tabs

 

Iron War Chords & Tabs

Wizard Chords & Tabs

Version: 1 Type: Tab 0 ratings
1 star 2 stars 3 stars 4 stars 5 stars
comments

Iron War Tab

                                         IRON WAR
                                            BY
                                          WIZARD
                                           FROM
                                    HEAD OF THE DECEIVER

TABBED BY DANIEL KALANDER

TUNE DOWN 1/2 STEP
 
  INTRO
e|-----------------------------------------------------------------|
B|-----------------------------------------------------------------|
G|-----9-----9-----9-----5--5------9-----9-----9---12--11--9--7----|
D|-----9-----9-----9-----5--5------9-----9-----9---12--11--9--7----|
A|-----7-----7-----7-----3--3------7-----7-----7---10--9---7--5----|
E|-0-0---0-0---0-0---0-0-------0-0---0-0---0-0---0-----------------|

e|--------------------------------------------------------------------------------------|
B|--------------------------------------------------------------------------------------|
G|-----9-----9-----9-----5--5------9-----9-----9---12--11--9--7--11--9--7--5--5----7----|
D|-----9-----9-----9-----5--5------9-----9-----9---12--11--9--7--11--9--7--5--5----7----|
A|-----7-----7-----7-----3--3------7-----7-----7---10--9---7--5--9---7--5--3--3----5----|
E|-0-0---0-0---0-0---0-0-------0-0---0-0---0-0---0---------------------------------5----|


  VERSE x2
e|------------------------------------------------------------------------------------|
B|------------------------------------------------------------------------------------|
G|-----------------------------------------7------------------------------------------|
D|-2-------------------2-------------------7-------------------2----------------------|
A|-2-------------------2-------------------5-5-5-5-5-5-5-5-5-5-2----------------------|
E|-0-0-0-0-0-0-0-0-0-0-0-0-0-0-0-0-0-0-0-0---------------------0-0-0-0-0-0-0-0-0-0----|
 
 
  BRIDGE 
e|---------------------------------------------------------------|
B|---------------------------------------------------------------|
G|-2-------4-------5-------7-------2-------4-------5-------7-----|
D|-2-------4-------5-------7-------2-------4-------5-------7-----|
A|-0-------2-------3-------5-------0-------2-------3-------5-----|
E|---------2-------3-------5---------------2-------3-------5-----|

  In the sign of the wizard...


 CHORUS
e|------------------------------------------------------------------------------------------|
B|------------------------------------------------------------------------------------------|
G|-9-----------------------7-------------------5--------------------------------------------|
D|-9-------------------9-7-7-------------------5-----------7-----------9--------------------|
A|-7-------------------7-7-5-5-5-5-5-5-5-5-5-5-3-3-3-3-3-3-7-----------9--------------------|
E|---0-0-0-0-0-0-0-0-0-------------------------------------5-5-5-5-5-5-7-7-7-7-7-7-7-7-7-7--|

[ Tab from: http://www.guitartabs.cc/tabs/w/wizard/iron_war_tab.html ]
e|------------------------------------------------------------------------------------------|
B|------------------------------------------------------------------------------------------|
G|-9-----------------------7-------------------5--------------------------------------------|
D|-9-------------------9-7-7-------------------5-----------7-------------9--9--9--9--9--9---|
A|-7-------------------7-7-5-5-5-5-5-5-5-5-5-5-3-3-3-3-3-3-7-------------9--9--9--9--9--9---|
E|---0-0-0-0-0-0-0-0-0-------------------------------------5-5-5-5-5-5-5-7--7--7--7--7--7---|


 VERSE 
 BRIDGE
 CHORUS

  SOLO RHYTHM
e|-------------------------------------------------|
B|-------------------------------------------------|
G|-9--9-9\-----9--9-9\-----7--7-7\------9--9-9\----|
D|-9--9-9\-----9--9-9\-----7--7-7\------9--9-9\----| x3 
A|-7--7-7\-----7--7-7\-----5--5-5\------7--7-7\----|
E|-------------------------------------------------|

e|------------------------------------------------------------------------------------------|
B|------------------------------------------------------------------------------------------|
G|-9-----------------------7-------------------5--------------------------------------------|
D|-9-------------------9-7-7-------------------5-----------7-----------9--------------------|
A|-7-------------------7-7-5-5-5-5-5-5-5-5-5-5-3-3-3-3-3-3-7-----------9--------------------|
E|---0-0-0-0-0-0-0-0-0-------------------------------------5-5-5-5-5-5-7-7-7-7-7-7-7-7-7-7--|


e|------------------------------------------------------------------------------------------|
B|------------------------------------------------------------------------------------------|
G|-9-----------------------7-------------------5--------------------------------------------|
D|-9-------------------9-7-7-------------------5-----------7-------------9--9--9--9--9--9---|
A|-7-------------------7-7-5-5-5-5-5-5-5-5-5-5-3-3-3-3-3-3-7-------------9--9--9--9--9--9---|
E|---0-0-0-0-0-0-0-0-0-------------------------------------5-5-5-5-5-5-5-7--7--7--7--7--7---|


  AFTER THE SOLO

e|-------------------------------------------------|
B|-------------------------------------------------|
G|-9--9-9\-----9--9-9\-----7--7-7\------9--9-9\----|
D|-9--9-9\-----9--9-9\-----7--7-7\------9--9-9\----| 
A|-7--7-7\-----7--7-7\-----5--5-5\------7--7-7\----|
E|-------------------------------------------------|
  
   Iron war               steel will prevail

  CHORUS

  CHORUS 2

e|------------------------------------------------------------------------------------------|
B|------------------------------------------------------------------------------------------|
G|-9-----------------------7-------------------5--------------------------------------------|
D|-9-------------------9-7-7-------------------5-----------7-----------9--------------------|
A|-7-------------------7-7-5-5-5-5-5-5-5-5-5-5-3-3-3-3-3-3-7-----------9--------------------|
E|---0-0-0-0-0-0-0-0-0-------------------------------------5-5-5-5-5-5-7-7-7-7-7-7-7-7-7-7--|


e|--------------------------------------------------------------------------------------------|
B|--------------------------------------------------------------------------------------------|
G|-9-----------------------7-------------------5------------------------------------------9\--|
D|-9-------------------9-7-7-------------------5-----------7-------------9--9--9--9--9--9-9\--|
A|-7-------------------7-7-5-5-5-5-5-5-5-5-5-5-3-3-3-3-3-3-7-------------9--9--9--9--9--9-7\--|
E|---0-0-0-0-0-0-0-0-0-------------------------------------5-5-5-5-5-5-5-7--7--7--7--7--7-----|
Comments