Wittig Kevin - Best Damn Song Chords & Tabs

 

Best Damn Song Chords & Tabs

Wittig Kevin Chords & Tabs

Version: 1 Type: Tab 0 ratings
1 star 2 stars 3 stars 4 stars 5 stars
comments

Best Damn Song Tab

BEST DAMN SONG

e|--54-54-54--202-40------------------------------------------------------|
B|---------------------------------------------------------------------
G|--------------------54-54-54--202-40-------------------------------------------|
D|---------------------------------------------------------------|
A|---------------------------------------------------------------|
E|--------------------------------------54-54-54--202-40----------
[ Tab from: http://www.guitartabs.cc/tabs/w/wittig_kevin/best_damn_song_tab.html ]
e|---------------------------------------------------------------|
B|---------------------------------------------------------------|
G|--99--999--77------777---777-----44-3-5----------------------------------------------------|
D|--99--999--77------666---666-----33-2-4----------------------------------------------------|
A|--00--000--00------666---666-----33-2-4----------------------------------------------------|


my first tab ever!
it prob sux but mayB u can tell me if it does

i thought the beginning sounded pretty kewl anyway
Comments