Within Temptation - Ice Queen Chords & Tabs

 

Ice Queen Chords & Tabs

Within Temptation Chords & Tabs

Version: 1 Type: Tab 3 ratings
1 star 2 stars 3 stars 4 stars 5 stars
comments

Ice Queen Tab

                                          WITHIN TEMPTATION - ICE QUEEN


WWW     WW WWW WWWWWW WWW  WWW WWW WWWW  WWW    WWWWWW WWWWW WWWW  WWWW WWWWW  WWWWWW  WWWWWW  WWWWWW WWW  WWWWW  WWWW  WWW
WWW WWW WW     WWWWWW WWW  WWW     WWWWW WWW    WWWWWW WWW   WWWWWWWWWW WWW WW WWWWWW WWWWWWWW WWWWWW     WWW WWW WWWWW WWW
 WWWWWWWW  WWW   WW   WWWWWWWW WWW WWWWWWWWW      WW   WWWW  WWW WW WWW WWWWW    WW   WWW  WWW   WW   WWW WWW WWW WWWWWWWWW
 WWWWWWWW  WWW   WW   WWW  WWW WWW WWW  WWWW      WW   WWW   WWW    WWW WWW      WW   WWWWWWWW   WW   WWW WWW WWW WWW  WWWW
  WWW WW   WWW   WW   WWW  WWW WWW WWW   WWW      WW   WWWWW WWW    WWW WWW      WW   WWW  WWW   WW   WWW  WWWWW  WWW   WWW





                  WWW  WWWW  WWWWW      WWWWW   WWW WWW WWWWW WWWWW WWWW  WWW    WWW
                      WWW WW WWW       WWW WWW  WWW WWW WWW   WWW   WWWWW WWW    WWW
                  WWW WWW    WWWW      WWW WWW  WWW WWW WWWW  WWWW  WWWWWWWWW    WWW
                  WWW WWW WW WWW       WWW WWWW WWWWWWW WWW   WWW   WWW  WWWW
                  WWW  WWWW  WWWWW      WWWWWWW  WWW WW WWWWW WWWWW WWW   WWW    WWW


INTRO 
e||-------------------------------|-----------||
b||-------------------------------|-----------||
g||-------------------------------|-----------||
d||-6666/2222-6666/2222-6666/2222-|-9999/8888-||
a||-6666/2222-6666/2222-6666/2222-|-9999/8888-||
E||-4444/0000-4444/0000-4444/0000-|-7777/6666-||


e||-------------------------------|------------|---------------------------------||
b||-------------------------------|------------|---------------------------------||
g||-------------------------------|------------|---------------------------------||
d||-6666/2222-6666/2222-6666/2222-|-9999/8888--|--9-(9)9---(9)9-(9)9---(9)9-8-6--||
a||-6666/2222-6666/2222-6666/2222-|-9999/8888--|--9-(9)9---(9)9-(9)9---(9)9-8-6--||
E||-4444/0000-4444/0000-4444/0000-|-7777/6666--|--7-(7)7---(7)7-(7)7---(7)7-6-4--||

MAIN PART
e||------------------|---------------------|------------------|---------------------||    
b||------------------|---------------------|------------------|---------------------||  
g||------------------|---------------------|------------------|---------------------||  
d||-666-222-999--444-|-666-222-999---------|-666-222-999--444-|-666-222-999---------||  
a||-666-222-999--444-|-666-222-999--9-8--6-|-666-222-999--444-|-666-222-999--9-8--6-||
E||-444-000-777--222-|-444-000-777--7-6--4-|-444-000-777--222-|-444-000-777--7-6--4-||

[ Tab from: http://www.guitartabs.cc/tabs/w/within_temptation/ice_queen_tab.html ]
e||---------------------------|---------------------------||
b||---------------------------|---------------------------||
g||---------------------------|---------------------------||
d||-2-2-2--4444-----9-99--8-2-|-2-2-2--4444-----9-99--8-2-||
a||-2-2-2--4444-----9-99--8-2-|-2-2-2--4444-----9-99--8-2-||
E||-0-0-0--2222-----7-77--6-0-|-0-0-0--2222-----7-77--6-0-||


e||------------------|---------------------|------------------|---------------------||
b||------------------|---------------------|------------------|---------------------||
g||------------------|---------------------|------------------|---------------------||
d||-666-222-999--222-|-666-222-999---------|-666-222-999--222-|-666-222-999---------||
a||-666-222-999--222-|-666-222-999--9-8--6-|-666-222-999--222-|-666-222-999--9-8--6-||
E||-444-000-777--000-|-444-000-777--7-6--4-|-444-000-777--000-|-444-000-777--7-6--4-||


e||-------------------------------|-----------||
b||-------------------------------|-----------||
g||-------------------------------|-----------||
d||-6666/2222-6666/2222-6666/2222-|-9999/8888-||
a||-6666/2222-6666/2222-6666/2222-|-9999/8888-||
E||-4444/0000-4444/0000-4444/0000-|-7777/6666-||


e||-------------------------------|-----------|--------------------||
b||-------------------------------|-----------|--------------------||
g||-------------------------------|-----------|--------------------||
d||-6666/2222-6666/2222-6666/2222-|-9999/8888-|-9-(9)9---(9)9-8-6--||
a||-6666/2222-6666/2222-6666/2222-|-9999/8888-|-9-(9)9---(9)9-8-6--||
E||-4444/0000-4444/0000-4444/0000-|-7777/6666-|-7-(7)7---(7)7-6-4--||


e||------------------|---------------------|------------------|---------------------||
b||------------------|---------------------|------------------|---------------------||
g||------------------|---------------------|------------------|---------------------||
d||-666-222-999--222-|-666-222-999---------|-666-222-999--222-|-666-222-999---------||
a||-666-222-999--222-|-666-222-999--9-8--6-|-666-222-999--222-|-666-222-999--9-8--6-||
E||-444-000-777--000-|-444-000-777--7-6--4-|-444-000-777--000-|-444-000-777--7-6--4-||


e||---------------------------|---------------------------||
b||---------------------------|---------------------------||
g||---------------------------|---------------------------||
d||-2-2-2--4444-----9-99--8-2-|-2-2-2--4444-----9-99--8-2-||
a||-2-2-2--4444-----9-99--8-2-|-2-2-2--4444-----9-99--8-2-||
E||-0-0-0--2222-----7-77--6-0-|-0-0-0--2222-----7-77--6-0-||

LAST PART
e||-----------------------------------------------------------------------||
b||-----------------------------------------------------------------------||
g||-----------------------------------------------------------------------||
d||-2-----9-----6-----4-----2-----2-----6-----4-----2-----9----(9)8-----6-||
a||-2-----7-----6-----4-----2-----2-----6-----4-----2-----9----(9)8-----6-||
E||-0-----------4-----2-----0-----0-----4-----2-----0-----7----(7)6-----4-||

 
                               THE END !!!

Comments