Within Temptation - Gatekeeper Chords & Tabs

 

Gatekeeper Chords & Tabs

Within Temptation Chords & Tabs

Version: 1 Type: Tab 0 ratings
1 star 2 stars 3 stars 4 stars 5 stars
comments

Gatekeeper Tab

   
Within Temptation - Gatekeeper
Great song from 'Enter'

Standard tuning -EADGBe
\or/=slide
~=vibrato
pm... = palm mute

Keyboard Intro
|------------------------------------------------------|
|------------------------------------------------------|
|------------------------------------------------------|
|------------------------------------------------------|
|------------------------------------------------------|
|-3~~~~~-----------------------------------------------|

riff A - brass intro (0:20)
|------------------------------------------------------|
|------------------------------------------------------|
|-7~--5-3h5--5\3-------2h3h5--5p3p2(h3)--3-2-----------|
|----------------/7-7----------------------------------|
|------------------------------------------------------|
|------------------------------------------------------|

|------------------------------------------------------|
|----------------------------------------3-2-----------|
|-7~--5-3h5--5\3-------2h3h5--5p3p2(h3)----------------|
|----------------/7-7----------------------------------|
|------------------------------------------------------|
|------------------------------------------------------|


riff B - slow strings after the brass bit 
|-15--15--17--18--15--15--17--18--15--15--17--18--15--15--18--17--|
|-----------------------------------------------------------------|
|-----------------------------------------------------------------| 
|-----------------------------------------------------------------|
|-----------------------------------------------------------------|
|-----------------------------------------------------------------|

repeat as many times a necesary, but on the last time play |-15--18--20----| at the end.

keyboard played underneath the slow strings
|------------------------------------------------------|
|------------------------------------------------------|
|------------------------------------------------------|
|-5------------------5---------------------------------|
|-----6---8---5---------6---8---5----------------------|
|------------------------------------------------------|

|------------------------------------------------------|
|------------------------------------------------------|
|------------------------------------------------------|
|-5------------------5----------7~---------------------|
|-----6---8---5---------6---8--------------------------|
|------------------------------------------------------|

riff C (Guitar) (1:40) (play the 8/6 only on last time)
|----------------------------------------------------------------------|-|
|----------------------------------------------------------------------|-|
|----------------------------------------------------------------------|-|
|-5---------------5---------------/8\5--7---------------7--------------|8|
|-3----33-3-33-3--3----33-3-33-3--/6\3--5----55-5-55-5--5----55-5-55-5-|6|
|----------------------------------------------------------------------|-|
    pm.......    pm.......          pm.......    pm.......
						(4x)
fast bit with strings, cant figure it out
[ Tab from: http://www.guitartabs.cc/tabs/w/within_temptation/gatekeeper_tab.html ]
riff D
|------------------------------------------------------|
|------------------------------------------------------|
|------------------------------------------------------|
|-2-2-2--222---2-2-2--222---2-2-2--222---2-2-2--222----|
|-2-2-2--222---2-2-2--222---2-2-2--222---2-2-2--222----|
|-0-0-0--000---0-0-0--000---0-0-0--000---0-0-0--000----|
 p.m................................................
						(2x)
riff E
|------------------------------------------------------|
|------------------------------------------------------|
|------------------------------------------------------|
|------------------------------------------------------|
|-7-----5-------------------7-----5--------------------|
|---000---000-7-7777-7777-----000---000-7-7777-7777----|
   pm..  pm..   pm.......    pm..  pm..   pm.......
riff F
|------------------------------------------------------|
|------------------------------------------------------|
|------------------------------------------------------|
|------------------------------------------------------|
|-5-----3-------------------5-----3--------------------|
|---000---000-5-5555-5555-----000---000-5-5555-5555----|
   pm..  pm..   pm.......    pm..  pm..   pm.......

riff G (3:08) (guitar)
|------------------------------------------------------|
|------------------------------------------------------|
|------------------------------------------------------|
|------------------------------------------------------|
|-7p3--7p3--7p3--7p3--9p5--9p5--9p5--9p5--7p5h7--------|
|----0----0----0----0-----0----0----0------------------|
						(8x)
riff G (3:08) (keyboard underneath guitar)
|--------------------------------------------------------|
|--------------------------------------------------------|
|--------------------------------------------------------|
|--------------------------------------------------------|
|-7--9-10-9-----7--9-10-9-----7--9-10-9-----7--9-10-9----|
|-----------10------------10------------10------------10-|
						(2x)
riff H (3:24)
|-------------------------------------------------|
|-------------------------------------------------|
|-------------------------------------------------|
|-------------------------------------------------|
|-0-0-0-3-3-3-2-2-2-0-0-0-0-0-0-3-3-3-2-2-2-0-0-0-|
|-------------------------------------------------|
 p.m..............................................

|-------------------------------------------------|
|-------------------------------------------------|
|-------------------------------------------------|
|-------------------------------------------------|
|-------------------------------------------------|
|-0-0-0-3-3-3-2-2-2-0-0-0-0-0-0-3-3-3-2-2-2-0-0-0-|
 p.m.............................................

|-------------------------------------------------|
|-------------------------------------------------|
|-------------------------------------------------|
|-------------------------------------------------|
|-0-0-0-3-3-3-2-2-2-0-0-0-0-0-0-3-3-3-2-2-2-0-0-0-|
|-------------------------------------------------|
 p.m.............................................

|-------------------------------------------------|
|-------------------------------------------------|
|-------------------------------------------------|
|-------------------------------------------------|
|-2-2-2-5-5-5-4-4-4-2-2-2-2-2-2-5-5-5-4-4-4-2-2-2-|
|-------------------------------------------------|


repeat riff E 1x (4:00)
repeat riff F 1x
repeat riff G 4x / 2x
repeat riff H 3x

riff I
|------------------------------------------------------|
|------------------------------------------------------|
|------------------------------------------------------|
|-9999-9999-9999-9999----------------------------------|
|-7777-7777-7777-7777--9999-9999-9999-9999-------------|
|----------------------7777-7777-7777-7777-------------|
 p.m.............................................
						(3x)
riff J (6:06)
|-----------------------------------------------------------|
|-----------------------------------------------------------|
|-----------------------------------------------------------|
|---------------2----9-7--9---------------------------------|
|-7----5-7--5---2----7-5--7---------------------------------|
|-5----3-5--3---0----0----0---------------------------------|
                   pm........

|---------------------------------------------------------|
|---------------------------------------------------------|
|---------------------------------------------------------|
|---------------------------------------------------------|
|-7-7-7--9---999999---------------------------------------|
|-5-5-5--7---777777---------------------------------------|
	    pm.....

|------------------------------------------------------------|
|------------------------------------------------------------|
|------------------------------------------------------------|
|---------------2----9--7--9---------------------------------|
|-7----5-7--5---2----7--5--7---------------------------------|
|-5----3-5--3---0----0-----0---------------------------------|

|-----------------------------------------------------------|
|-----------------------------------------------------------|
|-----------------------------------------------------------|
|-----------------------------------------------------------|
|-7-7-7--9---999999-9\--------------------------------------|
|-5-5-5--7---777777-7\--------------------------------------|
Comments