Withers Bill - Lean On Me Chords & Tabs

 

Lean On Me Chords & Tabs

Withers Bill Chords & Tabs

Version: 1 Type: Tab 0 ratings
1 star 2 stars 3 stars 4 stars 5 stars
comments

Lean On Me Tab

   
Lean On Me
Bill Withers

tab by Nick Lyons (nlyons83@yahoo.com) 12/1/2003


played on piano but easily transferrable to guitar


 C   C D E F           F E D C       C D E E   D
---------------10-8-------------5-3----------------
---------------10-10------------5-5----------------
-5---5-7-9-10---------10-9-7-5-------5-7-9-9---5---
-5---5-7-9-10---------10-9-7-5-------5-7-9-9---5---
-3---3-5-7--8----------8-7-5-3-------3-5-7-7---3---
---------------------------------------------------

       C   C D E F     F E D C   C D E B    C
------------------------------------------------
------------------------------------------------
-----5-5---5-7-9-10---10-9-7-5---5-7-9----------
-5-7---5---5-7-9-10---10-9-7-5---5-7-9-9---10---
-------3---3-5-7--8----8-7-5-3---3-5-7-9---10---
---------------------------------------7----8---
 ^ ^ ^
can also be
A|---0-3-
E|-3-----

[ Tab from: http://www.guitartabs.cc/tabs/w/withers_bill/lean_on_me_tab.html ]
C   C     D  E   F      F  E   D    C     C  D   E    E  D
sometimes in our lives, we all have pain, we all have sorrow
C   C  D  E   F     F  E    D    C       C D    E  B C
but if we are wise, we know that there's always tomorrow

lean on me when you're not strong, and i'll be your friend, i'll help you carry on
for it won't be long, til i'm gonna need, somebody to lean on

please swallow your pride, if i have things, you need to borrow
for no one can fill, those of your needs, that you won't let show


[drum fill, maybe play around with C, end with B C on 'lean on']
you just call on me brother when you need a hand
we all need somebody to lean on
i just might have a problem that you'll understand
we all need somebody to lean on


lean on me when you're not strong, and i'll be your friend, i'll help you carry on
for it won't be long, til i'm gonna need, somebody to lean on


you just call on me brother if you need a friend
we all need somebody to lean on
i just might have a problem that you'll understand
we all need somebody to lean on


if there is a load, you have to bear, that you can't carry
i'm right up the road, i'll share your load, if you just call me


D    C
call me (if you need a friend)
call me

(fade and repeat)
Comments