Withers Bill - Aint No Sunshine Chords & Tabs

 

Aint No Sunshine Chords & Tabs

Withers Bill Chords & Tabs

Version: 1 Type: Bass Tab 0 ratings
1 star 2 stars 3 stars 4 stars 5 stars
comments

Aint No Sunshine Bass Tab

Ain't no sunshine by
Bill withers
Bass tab 
tabed by pussyscreams@hotmail.com

basically just htis riff

G--------------------------------------------
D-------------------------------------------
A--------------------------------------------
E----5----5---0------0------3-----4-------5

when you get to 
    "ain't no sinshine when shes gone and shes.........."
It goes like this
[ Tab from: http://www.guitartabs.cc/tabs/w/withers_bill/aint_no_sunshine_btab.html ]
G----------------------------------------------------------------------------------
D-------------------------5--------7----------------------------------------------
A-----3-----5------7------------------7-----6-----5----0------------------------
E----------------------------------------------------------------3--------4--------5

well thats basically it and when you get to "i know i know i know......" the
bass stops so thats it. Enjoy.
Comments