Withered Beauty - Through Silent Skies Chords & Tabs

 

Through Silent Skies Chords & Tabs

Withered Beauty Chords & Tabs

Version: 1 Type: Tab 0 ratings
1 star 2 stars 3 stars 4 stars 5 stars
comments

Through Silent Skies Tab

Withered Beauty - Through Silent Skies
Tabbed and transcribed by HellPatrol (hellpatrol69x@geocities.com)
Listen to the record for timing and how much each
riff is played.
This and other tabs can be found on my page.
Go check it out at http://www.geocities.com/BourbonStreet/Quarter/1571/

1.
|----------0-------|
|------0-----0---0-|
|----9---9-----9---|
|-10---------------|
|------------------|
|------------------|

2.
|---------0-------|
|-----0-----0---0-|
|---7---7-----7---|
|-9---------------|
|-----------------|
|-----------------|

3.
|----------------------------------|
|---------5----------------8-------|
|-----5-----5---5------7-----7---7-|
|---7---7-----7------9---9-----9---|
|-8---------------10---------------|
|----------------------------------|

4.
|----------------------------------------|
|-10---------------10-9------------------|
|----9------------------10-9-7------7-10-|
|------10-7---7-10-------------9-10------|
|-----------7----------------------------|
|----------------------------------------|

|--------------------------------------------|
|-------------------------------9-10-12-10---|
|-9----------------------7-9-10--------------|
|---10-9-7---7-9-10-9-10---------------------|
|----------7---------------------------------|
|--------------------------------------------|

solo2.
|--------------------------------------------|
|-10-9-10-12-10-12-13-12-10-9-10-12-13-12-13-|
|--------------------------------------------|
|--------------------------------------------|
|--------------------------------------------|
|--------------------------------------------|

|-10----10-10h12---12-10-12-13-12-10----------|
|----13------------------------------13-12-10-|
|---------------------------------------------|
|---------------------------------------------|
|---------------------------------------------|
|---------------------------------------------|
[ Tab from: http://www.guitartabs.cc/tabs/w/withered_beauty/through_silent_skies_tab.html ]
|------------10-12-13-10-13-12----12-10----10-|
|-9-10-12-13-------------------13-------12----|
|---------------------------------------------|
|---------------------------------------------|
|---------------------------------------------|
|---------------------------------------------|

|------10-13-10-13-12----12-10----10-------|
|-9-12----------------13-------12----9-0-9-|
|------------------------------------------|
|------------------------------------------|
|------------------------------------------|
|------------------------------------------|

|-----------------------------------------13--|
|-/12--10h12p10----9-10-12--10---9-10-9~------|
|---------------------------------------------|
|---------------------------------------------|
|---------------------------------------------|
|---------------------------------------------|

|-0--x-----------------------------------------|
|----------------------------------------------|
|------4-5-7-7/9~--------------------------7-9-|
|---------------------6-7-9-10-9/10-7-9-10-----|
|-------------------0--------------------------|
|----------------------------------------------|

|-----------------------------------------------|
|--------------------------------10---12---13---|
|-10--9h10-12~---10ah-9-7---9-10----9----9----9-|
|-----------------------------------------------|
|-----------------------------------------------|
|-----------------------------------------------|

|-12------------------13----10-------12nh-------|
|----13--/15~---17-------------12-10------12----|
|------------13----13----13------------------9--|
|-----------------------------------------------|
|-----------------------------------------------|
|-----------------------------------------------|

|------12-----------------13----------|
|-13------13-/15----17----------15----|
|----9-----------13----13----13----13-|
|-------------------------------------|
|-------------------------------------|
|-------------------------------------|

|-13--12-10--12h13-12---13--12-10~----------|
|--------12--------------------12~----------|
|-------------------------------------------|
|-------------------------------------------|
|-------------------------------------------|
|-------------------------------------------|
Comments