Wir Sind Helden - Zuhaelter Chords & Tabs

 

Zuhaelter Chords & Tabs

Wir Sind Helden Chords & Tabs

Version: 1 Type: Bass Tab 0 ratings
1 star 2 stars 3 stars 4 stars 5 stars
comments

Zuhaelter Bass Tab

Artist: Wir sind Helden 
Song: Zuhälter
Album: von hier an blind (New Album! :D)
http://www.wirsindhelden.de.de/
Tabber ElExar@freenet.de
Tuning: EADG
Basstab

\ = Slide down

||| Intro: /

E|---3-5-3-5 \---3-5-3-5 \------------5-7-9-9-9-7-5-5-----------------------|
A|--------------------------------------------------------------------------|  
D|--------------------------------------------------------------------------|
G|--------------------------------------------------------------------------|



||| Chorus:

E|-555555-55555-7-777777-77777----------------------------------------------|
A|-----------------------------8-88888-7-77777-5-555555-55555---------------|  
D|--------------------------------------------------------------------------|
G|--------------------------------------------------------------------------|


||| Verse 

1) Sollen wir uns zügeln ...  

E|-5--5-5-55-5---5--5-5-55-5-5----------------------------------------------|
A|--------------------------------------------------------------------------|    
D|--------------------------------------------------------------------------|
G|--------------------------------------------------------------------------|


Zuhälter			 Zuhälter haltet euch raus... (Da kommt noch was hinter als Übergang)

E|-5--5-5-55-5---5--5-5-55-5-5----------------------------------------------|
A|-------------------------------88888-77777-555555-5555 -------------------|  2x
D|--------------------------------------------------------------------------|
G|--------------------------------------------------------------------------|


||| Chorus

Ihr Schickt meine Liebe ...
[ Tab from: http://www.guitartabs.cc/tabs/w/wir_sind_helden/zuhaelter_btab.html ]
E|-555555-55555-7-777777-77777----------------------------------------------|
A|-----------------------------8-88888-7-77777-5-555555-55555---------------|  2x
D|--------------------------------------------------------------------------|
G|--------------------------------------------------------------------------|


||| Verse

Zuhälter			 Zuhälter haltet euch raus... (Da kommt noch was hinter als Übergang)

E|-5--5-5-55-5---5--5-5-55-5-5----------------------------------------------|
A|-------------------------------88888-77777-555555-5555 -------------------| 2x 
D|--------------------------------------------------------------------------|
G|--------------------------------------------------------------------------|


||| Chorus

Ihr Schickt meine Lieder ...

E|-555555-55555-7-777777-77777----------------------------------------------|
A|-----------------------------8-88888-7-77777-5-555555-55555---------------|  2x
D|--------------------------------------------------------------------------|
G|--------------------------------------------------------------------------|



||| Interlude

E|-555555-55555-7-777777-77777----------------------------------------------|
A|-----------------------------8-88888-7-77777-5-555555-55555---------------|  
D|--------------------------------------------------------------------------|
G|--------------------------------------------------------------------------|



--
Ihr schickt unsre Lieder ...
--
                                 Sie solln ihre
E|--------------------------------------------------------------------------|
A|-------------------------------88888-77777-555555-5555 -------------------|  
D|--------------------------------------------------------------------------|
G|--------------------------------------------------------------------------|


Ihr Schickt Unsre Lieder ...

E|-555555-55555-7-777777-77777----------------------------------------------|
A|-----------------------------8-88888-7-77777-5-555555-55555---------------| 
D|--------------------------------------------------------------------------|
G|--------------------------------------------------------------------------|
Comments