Wir Sind Helden - Monster Chords & Tabs

 

Monster Chords & Tabs

Wir Sind Helden Chords & Tabs

Version: 1 Type: Tab 0 ratings
1 star 2 stars 3 stars 4 stars 5 stars
comments

Monster Tab

   
Monster - Wir Sind helden 
from the "Die Reklamation" album 


Intro (0:00) & Verse (0:15)
     Eb (PM)              B (PM)              Eb(PM) 
e-----------------------|----------------------------------------|
b-----------------------|----------------------------------------|
g--(8)(8)---------------|----------------------(8)(8)------------|
d--(8)(8)---------------|(9)(9)----------------(8)(8)------------|
a---6--6-xxxxxxxxxxx----|(9)(9)-----------------6--6--xxxxxxxxx--|
e-----------------------|-7--7-xxxxxxxxxxx-----------------------|
                      x4                                      x2 

Préchorus (0:26)
e------------|
b------------|
g------------|
d------------|
a---6-6------|
e------------|
     x4
[ Tab from: http://www.guitartabs.cc/tabs/w/wir_sind_helden/monster_tab.html ]
Chorus :  2x PM (0:30) then Powerchords (0:38)
e--------------------------------------------------|
b--------------------------------------------------|
g------------------------8-8-8-8-8-8-8-8-8-8-------|
d----9-9-9-9-9-9-9-9-----8-8-8-8-8-8-8-8-8-8-------|
a----9-9-9-9-9-9-9-9-----6-6-6-6-6-6-6-6-6-6-------|
e----7-7-7-7-7-7-7-7-------------------------------|
                                                 x2

Postchorus (0:45)
e---------------|
b---------------|
g---------------|
d---------------|
a---6-6-xxxxxxx-|
e---------------|

Verse (00:52)
Préchorus (1:18) 
Chorus (1:22)(2 times longer and only in powerchords)

Interlude (1:52)

Solo (2:06)
e------------------------------------------------|
b----------------7---------------7-7-------------|
g-----6-6------6------6-6----------------6-6-----|
d------------------------------------------------|
a---6--------6------6---------6-------6----------|
e------------------------------------------------|
     x5       x1     x6       x5         x6

Chorus (2:36) + Solo riffs to end


Always the same two chords. Great song though! 
beranger80@hotmail.com
\
Comments