Wir Sind Helden - Monster Chords & Tabs

 

Monster Chords & Tabs

Wir Sind Helden Chords & Tabs

Version: 1 Type: Bass Tab 0 ratings
1 star 2 stars 3 stars 4 stars 5 stars
comments

Monster Bass Tab

   
Band/Artist: Wir sind Helden
Song: Monster
Inscribed by Jan Hoffmann
 
Verse Riff Db:           Last Verse Riff Db:
G|---------------------  |-------------------------------------------------|
D|-11-11---------------  |-11-11-11-11-11-11-11-11-11-11-11-11-11-11-11-11-|
A|---------------------  |-------------------------------------------------|
E|---------------------  |-------------------------------------------------|
B|---------------------  |-------------------------------------------------|
 
Verse Riff Ab:
G|---------------------------------------------|
D|---------------------------------------------|
A|-23-23-23-23-23-23-23\\\11-11-11-11-11\\\----|
E|---------------------------------------------|
B|---------------------------------------------|
 
Verse:  |Db|Db|Db|Db|Ab|Db|Ab|Db|
 
Chorus:
G|-----------------------------------------------------------------|
D|-------------------------------------------------6---------------|
A|-----------------6-6-6-6-6-6-6-----------------------------------| 2x
E|-7-7-7-7-7-7-7-------------------7-7-7-7-7-7-7-7---4-4-4-4-4-4---|
B|-----------------------------------------------------------------|
 
Bridge: |Db|Db|
Verse:  |Db|Db|Ab|Db|Ab|Db|Ab|Db|
 
Chorus 4x
Break
 
Interlude:
G|-----------------|    |-----------------|    |-----------------|
D|-----------------|    |-----------------|    |-----------------|
A|-6-6-6-6-6-6-6-6-| 4x |-7-7-7-7-7-7-7-7-| 2x |-6-6-6-6-6-6-6-6-| 2x
E|-----------------|    |-----------------|    |-----------------|
B|-----------------|    |-----------------|    |-----------------|
 
Chorus (Instrumental) 4x
Chorus 4x
Break

[ Tab from: http://www.guitartabs.cc/tabs/w/wir_sind_helden/monster_btab.html ]
Comments