Wir Sind Helden - Du Erkennst Mich Nicht Wieder Chords & Tabs

 

Du Erkennst Mich Nicht Wieder Chords & Tabs

Wir Sind Helden Chords & Tabs

Version: 1 Type: Tab 0 ratings
1 star 2 stars 3 stars 4 stars 5 stars
comments

Du Erkennst Mich Nicht Wieder Tab

Intro
-------

3x
|-----------------------------------------------|
|-----------------------------------------------|  
|-----------------------------------------------|
|-----8-------8---------------8---------8-------|
|-6------6-6--------------5---------5-5---------|
|-----------------------------------------------|


1x
|-----------------------------------------------|
|-----------------------------------------------|
|-----------------------------------------------|
|-----5----------5------------------------------|
|-3----------3-3-----------------6--------6-----|
|---------------------------4--------4-4--------|





Verse
-------


3x
|-----------------------------------------------|
|-----------------------------------------------|  
|-----------------------------------------------|
|-----8-------8---------------8--------8--------|
|-6------6-6--------------5-------5-5-----------|
|-----------------------------------------------|


1x
|-----------------------------------------------|
|-----------------------------------------------|
|-----------------------------------------------|
|-----5----------5------------------------------|
|-3----------3-3-----------------6--------6-----|
|---------------------------4--------4-4--------|







Refrain
-------

[ Tab from: http://www.guitartabs.cc/tabs/w/wir_sind_helden/du_erkennst_mich_nicht_wieder_tab.html ]
3x
|-----------------------------------------------|
|-----------------------------------------------|  
|-----------------------------------------------|
|-----8-------8---------------8--------8--------|
|-6------6-6--------------5-------5-5-----------|
|-----------------------------------------------|


1x
|-----------------------------------------------|
|-----------------------------------------------|
|-----------------------------------------------|
|-----5----------5------------------------------|
|-3----------3-3-----------------6--------6-----|
|---------------------------4--------4-4--------|



1x
|-----------------------------------------------|
|-----------------------------------------------|  
|-----------------------------------------------|
|-----8-------8---------------8--------8--------|
|-6------6-6--------------5-------5-5-----------|
|-----------------------------------------------|


1x
|-----------------------------------------------|
|-----------------------------------------------|
|-----------------------------------------------|
|-----5----------5------------------------------|
|-3----------3-3-----------------6--------6-----|
|---------------------------4----------4-4------|






Chorus II
---------
 
 Distortion


|---|     |-6-|       |---|      |-4-|
|---|     |-6-|       |---|      |-4-|
|-8-|8x   |-7-|8x     |-5-|8x    |-5-|8x
|-8-|     |-8-|       |-5-|      |-6-|  
|-6-|     |-8-|       |-3-|      |-6-||
|---|     |-6-|       |---|      |-4-|
            




End
----


|----|     
|----|     
|-8~-|  
|-8~-|       
|-6~-|     
|----|  


 1x Intro
 3x Verse
 1x Chorus
 1x Verse
 1x Chorus
11x Chorus II
 1x End
Comments